  0
SECTION
  2
HEADER
  9
$ACADVER
  1
AC1015
  9
$ACADMAINTVER
 70
     6
  9
$DWGCODEPAGE
  3
ANSI_1254
  9
$INSBASE
 10
0.0
 20
0.0
 30
0.0
  9
$EXTMIN
 10
0.0
 20
0.0
 30
0.0
  9
$EXTMAX
 10
279.4
 20
215.9
 30
0.0
  9
$LIMMIN
 10
0.0
 20
0.0
  9
$LIMMAX
 10
279.4
 20
215.9
  9
$ORTHOMODE
 70
     0
  9
$REGENMODE
 70
     1
  9
$FILLMODE
 70
     1
  9
$QTEXTMODE
 70
     0
  9
$MIRRTEXT
 70
     1
  9
$LTSCALE
 40
1.0
  9
$ATTMODE
 70
     1
  9
$TEXTSIZE
 40
3.5
  9
$TRACEWID
 40
1.0
  9
$TEXTSTYLE
  7
Standard
  9
$CLAYER
  8
0
  9
$CELTYPE
  6
ByLayer
  9
$CECOLOR
 62
   256
  9
$CELTSCALE
 40
1.0
  9
$DISPSILH
 70
     0
  9
$DIMSCALE
 40
1.0
  9
$DIMASZ
 40
3.5
  9
$DIMEXO
 40
1.0
  9
$DIMDLI
 40
3.75
  9
$DIMRND
 40
0.0
  9
$DIMDLE
 40
0.0
  9
$DIMEXE
 40
1.0
  9
$DIMTP
 40
0.0
  9
$DIMTM
 40
0.0
  9
$DIMTXT
 40
3.5
  9
$DIMCEN
 40
2.5
  9
$DIMTSZ
 40
0.0
  9
$DIMTOL
 70
     0
  9
$DIMLIM
 70
     0
  9
$DIMTIH
 70
     1
  9
$DIMTOH
 70
     1
  9
$DIMSE1
 70
     0
  9
$DIMSE2
 70
     0
  9
$DIMTAD
 70
     1
  9
$DIMZIN
 70
     0
  9
$DIMBLK
  1

  9
$DIMASO
 70
     1
  9
$DIMSHO
 70
     1
  9
$DIMPOST
  1

  9
$DIMAPOST
  1

  9
$DIMALT
 70
     0
  9
$DIMALTD
 70
     3
  9
$DIMALTF
 40
0.0393700787
  9
$DIMLFAC
 40
1.0
  9
$DIMTOFL
 70
     1
  9
$DIMTVP
 40
0.0
  9
$DIMTIX
 70
     0
  9
$DIMSOXD
 70
     0
  9
$DIMSAH
 70
     0
  9
$DIMBLK1
  1

  9
$DIMBLK2
  1

  9
$DIMSTYLE
  2
ISO-25
  9
$DIMCLRD
 70
     0
  9
$DIMCLRE
 70
     0
  9
$DIMCLRT
 70
     0
  9
$DIMTFAC
 40
1.0
  9
$DIMGAP
 40
1.524
  9
$DIMJUST
 70
     0
  9
$DIMSD1
 70
     0
  9
$DIMSD2
 70
     0
  9
$DIMTOLJ
 70
     0
  9
$DIMTZIN
 70
     0
  9
$DIMALTZ
 70
     0
  9
$DIMALTTZ
 70
     0
  9
$DIMUPT
 70
     0
  9
$DIMDEC
 70
     2
  9
$DIMTDEC
 70
     2
  9
$DIMALTU
 70
     2
  9
$DIMALTTD
 70
     3
  9
$DIMTXSTY
  7
Standard
  9
$DIMAUNIT
 70
     0
  9
$DIMADEC
 70
     2
  9
$DIMALTRND
 40
0.0
  9
$DIMAZIN
 70
     0
  9
$DIMDSEP
 70
    44
  9
$DIMATFIT
 70
     3
  9
$DIMFRAC
 70
     0
  9
$DIMLDRBLK
  1

  9
$DIMLUNIT
 70
     2
  9
$DIMLWD
 70
    -2
  9
$DIMLWE
 70
    -2
  9
$DIMTMOVE
 70
     0
  9
$LUNITS
 70
     2
  9
$LUPREC
 70
     2
  9
$SKETCHINC
 40
1.0
  9
$FILLETRAD
 40
10.0
  9
$AUNITS
 70
     0
  9
$AUPREC
 70
     2
  9
$MENU
  1
.
  9
$ELEVATION
 40
0.0
  9
$PELEVATION
 40
0.0
  9
$THICKNESS
 40
0.0
  9
$LIMCHECK
 70
     0
  9
$CHAMFERA
 40
0.0
  9
$CHAMFERB
 40
0.0
  9
$CHAMFERC
 40
0.0
  9
$CHAMFERD
 40
0.0
  9
$SKPOLY
 70
     0
  9
$TDCREATE
 40
2459948.579427592
  9
$TDUCREATE
 40
2459948.454427592
  9
$TDUPDATE
 40
2459948.579427778
  9
$TDUUPDATE
 40
2459948.454427778
  9
$TDINDWG
 40
0.0000000116
  9
$TDUSRTIMER
 40
0.0000000116
  9
$USRTIMER
 70
     1
  9
$ANGBASE
 50
0.0
  9
$ANGDIR
 70
     0
  9
$PDMODE
 70
     0
  9
$PDSIZE
 40
-1.0
  9
$PLINEWID
 40
0.0
  9
$SPLFRAME
 70
     0
  9
$SPLINETYPE
 70
     6
  9
$SPLINESEGS
 70
     8
  9
$HANDSEED
  5
15A
  9
$SURFTAB1
 70
     6
  9
$SURFTAB2
 70
     6
  9
$SURFTYPE
 70
     6
  9
$SURFU
 70
     6
  9
$SURFV
 70
     6
  9
$UCSBASE
  2

  9
$UCSNAME
  2

  9
$UCSORG
 10
0.0
 20
0.0
 30
0.0
  9
$UCSXDIR
 10
1.0
 20
0.0
 30
0.0
  9
$UCSYDIR
 10
0.0
 20
1.0
 30
0.0
  9
$UCSORTHOREF
  2

  9
$UCSORTHOVIEW
 70
     0
  9
$UCSORGTOP
 10
0.0
 20
0.0
 30
0.0
  9
$UCSORGBOTTOM
 10
0.0
 20
0.0
 30
0.0
  9
$UCSORGLEFT
 10
0.0
 20
0.0
 30
0.0
  9
$UCSORGRIGHT
 10
0.0
 20
0.0
 30
0.0
  9
$UCSORGFRONT
 10
0.0
 20
0.0
 30
0.0
  9
$UCSORGBACK
 10
0.0
 20
0.0
 30
0.0
  9
$PUCSBASE
  2

  9
$PUCSNAME
  2

  9
$PUCSORG
 10
0.0
 20
0.0
 30
0.0
  9
$PUCSXDIR
 10
1.0
 20
0.0
 30
0.0
  9
$PUCSYDIR
 10
0.0
 20
1.0
 30
0.0
  9
$PUCSORTHOREF
  2

  9
$PUCSORTHOVIEW
 70
     0
  9
$PUCSORGTOP
 10
0.0
 20
0.0
 30
0.0
  9
$PUCSORGBOTTOM
 10
0.0
 20
0.0
 30
0.0
  9
$PUCSORGLEFT
 10
0.0
 20
0.0
 30
0.0
  9
$PUCSORGRIGHT
 10
0.0
 20
0.0
 30
0.0
  9
$PUCSORGFRONT
 10
0.0
 20
0.0
 30
0.0
  9
$PUCSORGBACK
 10
0.0
 20
0.0
 30
0.0
  9
$USERI1
 70
     0
  9
$USERI2
 70
     0
  9
$USERI3
 70
     0
  9
$USERI4
 70
     0
  9
$USERI5
 70
     0
  9
$USERR1
 40
0.0
  9
$USERR2
 40
0.0
  9
$USERR3
 40
0.0
  9
$USERR4
 40
0.0
  9
$USERR5
 40
0.0
  9
$WORLDVIEW
 70
     1
  9
$SHADEDGE
 70
     3
  9
$SHADEDIF
 70
    70
  9
$TILEMODE
 70
     1
  9
$MAXACTVP
 70
    64
  9
$PINSBASE
 10
0.0
 20
0.0
 30
0.0
  9
$PLIMCHECK
 70
     0
  9
$PEXTMIN
 10
1.0000000000E+20
 20
1.0000000000E+20
 30
1.0000000000E+20
  9
$PEXTMAX
 10
-1.0000000000E+20
 20
-1.0000000000E+20
 30
-1.0000000000E+20
  9
$PLIMMIN
 10
0.0
 20
0.0
  9
$PLIMMAX
 10
420.0
 20
297.0
  9
$UNITMODE
 70
     0
  9
$VISRETAIN
 70
     1
  9
$PLINEGEN
 70
     0
  9
$PSLTSCALE
 70
     1
  9
$TREEDEPTH
 70
  3020
  9
$CMLSTYLE
  2
Standard
  9
$CMLJUST
 70
     0
  9
$CMLSCALE
 40
20.0
  9
$PROXYGRAPHICS
 70
     1
  9
$MEASUREMENT
 70
     1
  9
$CELWEIGHT
370
    -1
  9
$ENDCAPS
280
     0
  9
$JOINSTYLE
280
     0
  9
$LWDISPLAY
290
     1
  9
$INSUNITS
 70
     4
  9
$HYPERLINKBASE
  1

  9
$STYLESHEET
  1

  9
$XEDIT
290
     1
  9
$CEPSNTYPE
380
     0
  9
$PSTYLEMODE
290
     1
  9
$FINGERPRINTGUID
  2
{902b8ddb-687e-47d0-b9e5-9c12395306b1}
  9
$VERSIONGUID
  2
{FAEB1C32-E019-11D5-929B-00C0DF256EC4}
  9
$EXTNAMES
290
     1
  9
$PSVPSCALE
 40
0.0
  9
$OLESTARTUP
290
     0
  0
ENDSEC
  0
SECTION
  2
CLASSES
  0
CLASS
  1
ACDBDICTIONARYWDFLT
  2
AcDbDictionaryWithDefault
  3
ObjectDBX Classes
 90
        0
280
     0
281
     0
  0
CLASS
  1
VISUALSTYLE
  2
AcDbVisualStyle
  3
ObjectDBX Classes
 90
     4095
280
     0
281
     0
  0
CLASS
  1
MATERIAL
  2
AcDbMaterial
  3
ObjectDBX Classes
 90
     1153
280
     0
281
     0
  0
CLASS
  1
SCALE
  2
AcDbScale
  3
ObjectDBX Classes
 90
     1153
280
     0
281
     0
  0
CLASS
  1
TABLESTYLE
  2
AcDbTableStyle
  3
ObjectDBX Classes
 90
     4095
280
     0
281
     0
  0
CLASS
  1
MLEADERSTYLE
  2
AcDbMLeaderStyle
  3
ACDB_MLEADERSTYLE_CLASS
 90
     4095
280
     0
281
     0
  0
CLASS
  1
SUN
  2
AcDbSun
  3
SCENEOE
 90
     1153
280
     0
281
     0
  0
CLASS
  1
ACDBPLACEHOLDER
  2
AcDbPlaceHolder
  3
ObjectDBX Classes
 90
        0
280
     0
281
     0
  0
CLASS
  1
LAYOUT
  2
AcDbLayout
  3
ObjectDBX Classes
 90
        0
280
     0
281
     0
  0
ENDSEC
  0
SECTION
  2
TABLES
  0
TABLE
  2
VPORT
  5
8
330
0
100
AcDbSymbolTable
 70
     1
  0
VPORT
  5
29
330
8
100
AcDbSymbolTableRecord
100
AcDbViewportTableRecord
  2
*Active
 70
     0
 10
0.0
 20
0.0
 11
1.0
 21
1.0
 12
139.7
 22
107.95
 13
0.0
 23
0.0
 14
10.0
 24
10.0
 15
10.0
 25
10.0
 16
0.0
 26
0.0
 36
1.0
 17
0.0
 27
0.0
 37
0.0
 40
215.9
 41
1.2941176471
 42
50.0
 43
0.0
 44
0.0
 50
0.0
 51
0.0
 71
     0
 72
  2000
 73
     1
 74
     3
 75
     0
 76
     0
 77
     0
 78
     0
281
     0
 65
     1
110
0.0
120
0.0
130
0.0
111
1.0
121
0.0
131
0.0
112
0.0
122
1.0
132
0.0
 79
     0
146
0.0
  0
ENDTAB
  0
TABLE
  2
LTYPE
  5
5
330
0
100
AcDbSymbolTable
 70
     6
  0
LTYPE
  5
14
330
5
100
AcDbSymbolTableRecord
100
AcDbLinetypeTableRecord
  2
ByBlock
 70
     0
  3

 72
    65
 73
     0
 40
0.0
  0
LTYPE
  5
15
330
5
100
AcDbSymbolTableRecord
100
AcDbLinetypeTableRecord
  2
ByLayer
 70
     0
  3

 72
    65
 73
     0
 40
0.0
  0
LTYPE
  5
16
330
5
100
AcDbSymbolTableRecord
100
AcDbLinetypeTableRecord
  2
Continuous
 70
     0
  3
Solid line
 72
    65
 73
     0
 40
0.0
  0
LTYPE
  5
6E
330
5
100
AcDbSymbolTableRecord
100
AcDbLinetypeTableRecord
  2
HIDDEN
 70
     0
  3
Hidden __ __ __ __ __ __ __ __ __ __ __ __ __ __
 72
    65
 73
     2
 40
1.905
 49
1.27
 74
     0
 49
-0.635
 74
     0
  0
LTYPE
  5
6F
330
5
100
AcDbSymbolTableRecord
100
AcDbLinetypeTableRecord
  2
PHANTOM
 70
     0
  3
Phantom ______  __  __  ______  __  __  ______
 72
    65
 73
     6
 40
12.7
 49
6.35
 74
     0
 49
-1.27
 74
     0
 49
1.27
 74
     0
 49
-1.27
 74
     0
 49
1.27
 74
     0
 49
-1.27
 74
     0
  0
LTYPE
  5
70
330
5
100
AcDbSymbolTableRecord
100
AcDbLinetypeTableRecord
  2
CENTER
 70
     0
  3
Center ____ _ ____ _ ____ _ ____ _ ____ _ ____
 72
    65
 73
     4
 40
10.16
 49
6.35
 74
     0
 49
-1.27
 74
     0
 49
1.27
 74
     0
 49
-1.27
 74
     0
  0
LTYPE
  5
71
330
5
100
AcDbSymbolTableRecord
100
AcDbLinetypeTableRecord
  2
CENTERX2
 70
     0
  3
Center (2x) ________  __  ________  __  _____
 72
    65
 73
     4
 40
20.32
 49
12.7
 74
     0
 49
-2.54
 74
     0
 49
2.54
 74
     0
 49
-2.54
 74
     0
  0
LTYPE
  5
72
330
5
100
AcDbSymbolTableRecord
100
AcDbLinetypeTableRecord
  2
DOT2
 70
     0
  3
Dot (.5x) ........................................
 72
    65
 73
     2
 40
0.635
 49
0.0
 74
     0
 49
-0.635
 74
     0
  0
ENDTAB
  0
TABLE
  2
LAYER
  5
2
330
0
100
AcDbSymbolTable
 70
    17
  0
LAYER
  5
10
330
2
100
AcDbSymbolTableRecord
100
AcDbLayerTableRecord
  2
0
 70
     0
 62
     7
  6
Continuous
370
    -3
390
F
  0
LAYER
  5
73
330
2
100
AcDbSymbolTableRecord
100
AcDbLayerTableRecord
  2
FORMAT
 70
     0
 62
     7
  6
Continuous
370
    -3
390
F
  0
LAYER
  5
74
330
2
100
AcDbSymbolTableRecord
100
AcDbLayerTableRecord
  2
YARDIMCI_GEOMETRI
 70
     0
 62
    -6
  6
Continuous
290
     0
370
    -3
390
F
  0
LAYER
  5
75
330
2
100
AcDbSymbolTableRecord
100
AcDbLayerTableRecord
  2
SAYFA_CERCEVESI
 70
     0
 62
     7
  6
Continuous
370
    25
390
F
  0
LAYER
  5
76
330
2
100
AcDbSymbolTableRecord
100
AcDbLayerTableRecord
  2
ANTET
 70
     0
 62
     7
  6
Continuous
370
    -3
390
F
  0
LAYER
  5
77
330
2
100
AcDbSymbolTableRecord
100
AcDbLayerTableRecord
  2
OLCU
 70
     0
 62
   150
  6
Continuous
370
    -3
390
F
  0
LAYER
  5
78
330
2
100
AcDbSymbolTableRecord
100
AcDbLayerTableRecord
  2
METIN
 70
     0
 62
    96
  6
Continuous
370
    -3
390
F
  0
LAYER
  5
79
330
2
100
AcDbSymbolTableRecord
100
AcDbLayerTableRecord
  2
BALON
 70
     0
 62
     5
  6
Continuous
370
    -3
390
F
  0
LAYER
  5
7A
330
2
100
AcDbSymbolTableRecord
100
AcDbLayerTableRecord
  2
VURGU
 70
     0
 62
     7
  6
Continuous
370
    -3
390
F
  0
LAYER
  5
7B
330
2
100
AcDbSymbolTableRecord
100
AcDbLayerTableRecord
  2
SILIK
 70
     0
 62
     7
  6
Continuous
370
    -3
390
F
  0
LAYER
  5
7C
330
2
100
AcDbSymbolTableRecord
100
AcDbLayerTableRecord
  2
MODEL
 70
     0
 62
     7
  6
Continuous
370
    -3
390
F
  0
LAYER
  5
7D
330
2
100
AcDbSymbolTableRecord
100
AcDbLayerTableRecord
  2
DETAYLANDıRMA
 70
     0
 62
   190
  6
Continuous
370
    -3
390
F
  0
LAYER
  5
7E
330
2
100
AcDbSymbolTableRecord
100
AcDbLayerTableRecord
  2
TOLERANS
 70
     0
 62
   230
  6
Continuous
370
    -3
390
F
  0
LAYER
  5
7F
330
2
100
AcDbSymbolTableRecord
100
AcDbLayerTableRecord
  2
MERKEZ_CIZGILERI
 70
     0
 62
    30
  6
Continuous
370
    -3
390
F
  0
LAYER
  5
80
330
2
100
AcDbSymbolTableRecord
100
AcDbLayerTableRecord
  2
KESIT-DETAY_CIZGILERI
 70
     0
 62
     7
  6
Continuous
370
    -3
390
F
  0
LAYER
  5
81
330
2
100
AcDbSymbolTableRecord
100
AcDbLayerTableRecord
  2
\U+041E\U+0421\U+0415\U+0412\U+042B\U+0415
 70
     0
 62
     7
  6
Continuous
370
    -3
390
F
  0
LAYER
  5
82
330
2
100
AcDbSymbolTableRecord
100
AcDbLayerTableRecord
  2
\U+0412\U+041E\U+0414\U+042F\U+041D\U+042B\U+0415_\U+0417\U+041D\U+0410\U+041A\U+0418
 70
     0
 62
    11
  6
Continuous
370
    -3
390
F
  0
ENDTAB
  0
TABLE
  2
STYLE
  5
3
330
0
100
AcDbSymbolTable
 70
     1
  0
STYLE
  5
11
330
3
100
AcDbSymbolTableRecord
100
AcDbTextStyleTableRecord
  2
Standard
 70
     0
 40
0.0
 41
1.0
 50
0.0
 71
     0
 42
3.5
  3
txt
  4

  0
ENDTAB
  0
TABLE
  2
VIEW
  5
6
330
0
100
AcDbSymbolTable
 70
     0
  0
ENDTAB
  0
TABLE
  2
UCS
  5
7
330
0
100
AcDbSymbolTable
 70
     0
  0
ENDTAB
  0
TABLE
  2
APPID
  5
9
330
0
100
AcDbSymbolTable
 70
     1
  0
APPID
  5
12
330
9
100
AcDbSymbolTableRecord
100
AcDbRegAppTableRecord
  2
ACAD
 70
     0
  0
ENDTAB
  0
TABLE
  2
DIMSTYLE
  5
A
330
0
100
AcDbSymbolTable
 70
     1
100
AcDbDimStyleTable
  0
DIMSTYLE
105
27
330
A
100
AcDbSymbolTableRecord
100
AcDbDimStyleTableRecord
  2
ISO-25
 70
     0
 41
2.5
 42
0.625
 43
3.75
 44
1.25
 73
     0
 74
     0
 77
     1
 78
     8
140
2.5
141
2.5
143
0.0393700787
147
0.625
171
     3
172
     1
178
     0
271
     2
272
     2
274
     3
278
    44
283
     0
284
     8
340
11
  0
ENDTAB
  0
TABLE
  2
BLOCK_RECORD
  5
1
330
0
100
AcDbSymbolTable
 70
     2
  0
BLOCK_RECORD
  5
1F
330
1
100
AcDbSymbolTableRecord
100
AcDbBlockTableRecord
  2
*Model_Space
340
22
  0
BLOCK_RECORD
  5
1B
330
1
100
AcDbSymbolTableRecord
100
AcDbBlockTableRecord
  2
*Paper_Space
340
1E
  0
BLOCK_RECORD
  5
23
330
1
100
AcDbSymbolTableRecord
100
AcDbBlockTableRecord
  2
*Paper_Space0
340
26
  0
BLOCK_RECORD
  5
87
330
1
100
AcDbSymbolTableRecord
100
AcDbBlockTableRecord
  2
SW_CENTERMARKSYMBOL_0
340
0
102
{BLKREFS
331
92
102
}
  0
ENDTAB
  0
ENDSEC
  0
SECTION
  2
BLOCKS
  0
BLOCK
  5
20
330
1F
100
AcDbEntity
  8
0
100
AcDbBlockBegin
  2
*Model_Space
 70
     0
 10
0.0
 20
0.0
 30
0.0
  3
*Model_Space
  1

  0
ENDBLK
  5
21
330
1F
100
AcDbEntity
  8
0
100
AcDbBlockEnd
  0
BLOCK
  5
1C
330
1B
100
AcDbEntity
 67
     1
  8
0
100
AcDbBlockBegin
  2
*Paper_Space
 70
     0
 10
0.0
 20
0.0
 30
0.0
  3
*Paper_Space
  1

  0
ENDBLK
  5
1D
330
1B
100
AcDbEntity
 67
     1
  8
0
100
AcDbBlockEnd
  0
BLOCK
  5
24
330
23
100
AcDbEntity
  8
0
100
AcDbBlockBegin
  2
*Paper_Space0
 70
     0
 10
0.0
 20
0.0
 30
0.0
  3
*Paper_Space0
  1

  0
ENDBLK
  5
25
330
23
100
AcDbEntity
  8
0
100
AcDbBlockEnd
  0
BLOCK
  5
88
330
87
100
AcDbEntity
  8
0
100
AcDbBlockBegin
  2
SW_CENTERMARKSYMBOL_0
 70
     0
 10
0.0
 20
0.0
 30
0.0
  3
SW_CENTERMARKSYMBOL_0
  1

  0
LINE
  5
8A
330
87
100
AcDbEntity
  8
FORMAT
 62
     0
100
AcDbLine
 10
0.0
 20
0.0
 30
0.0
 11
0.0
 21
2.5
 31
0.0
  0
LINE
  5
8B
330
87
100
AcDbEntity
  8
FORMAT
 62
     0
100
AcDbLine
 10
0.0
 20
0.0
 30
0.0
 11
-2.5
 21
0.0
 31
0.0
  0
LINE
  5
8C
330
87
100
AcDbEntity
  8
FORMAT
 62
     0
100
AcDbLine
 10
0.0
 20
0.0
 30
0.0
 11
0.0
 21
-2.5
 31
0.0
  0
LINE
  5
8D
330
87
100
AcDbEntity
  8
FORMAT
 62
     0
100
AcDbLine
 10
0.0
 20
0.0
 30
0.0
 11
2.5
 21
0.0
 31
0.0
  0
LINE
  5
8E
330
87
100
AcDbEntity
  8
FORMAT
 62
     0
100
AcDbLine
 10
0.0
 20
5.0
 30
0.0
 11
0.0
 21
47.5
 31
0.0
  0
LINE
  5
8F
330
87
100
AcDbEntity
  8
FORMAT
 62
     0
100
AcDbLine
 10
-5.0
 20
0.0
 30
0.0
 11
-47.5
 21
0.0
 31
0.0
  0
LINE
  5
90
330
87
100
AcDbEntity
  8
FORMAT
 62
     0
100
AcDbLine
 10
0.0
 20
-5.0
 30
0.0
 11
0.0
 21
-47.5
 31
0.0
  0
LINE
  5
91
330
87
100
AcDbEntity
  8
FORMAT
 62
     0
100
AcDbLine
 10
5.0
 20
0.0
 30
0.0
 11
47.5
 21
0.0
 31
0.0
  0
ENDBLK
  5
89
330
87
100
AcDbEntity
  8
0
100
AcDbBlockEnd
  0
ENDSEC
  0
SECTION
  2
ENTITIES
  0
CIRCLE
  5
83
330
1F
100
AcDbEntity
  8
0
  6
Continuous
 62
     7
370
    25
100
AcDbCircle
 10
139.8323425481
 20
108.7440552885
 30
0.0
 40
45.00000000000001
  0
CIRCLE
  5
84
330
1F
100
AcDbEntity
  8
0
  6
Continuous
 62
     7
370
    25
100
AcDbCircle
 10
139.8323425481
 20
108.7440552885
 30
0.0
 40
36.80000000000001
  0
CIRCLE
  5
85
330
1F
100
AcDbEntity
  8
0
  6
Continuous
 62
     7
370
    25
100
AcDbCircle
 10
139.8323425481
 20
108.7440552885
 30
0.0
 40
58.50000000000001
  0
CIRCLE
  5
86
330
1F
100
AcDbEntity
  8
0
  6
Continuous
 62
     7
370
    25
100
AcDbCircle
 10
139.8323425481
 20
108.7440552885
 30
0.0
 40
59.0
  0
INSERT
  5
92
330
1F
100
AcDbEntity
  8
FORMAT
 62
     7
100
AcDbBlockReference
  2
SW_CENTERMARKSYMBOL_0
 10
139.8323425481
 20
108.7440552885
 30
0.0
  0
LINE
  5
93
330
1F
100
AcDbEntity
  8
0
  6
Continuous
 62
     7
370
    25
100
AcDbLine
 10
198.8323425481
 20
259.9554443601
 30
0.0
 11
198.8323425481
 21
299.4554443601
 31
0.0
  0
LINE
  5
94
330
1F
100
AcDbEntity
  8
0
  6
Continuous
 62
     7
370
    25
100
AcDbLine
 10
80.8323425481
 20
299.4554443601
 30
0.0
 11
80.8323425481
 21
259.9554443601
 31
0.0
  0
ARC
  5
95
330
1F
100
AcDbEntity
  8
0
  6
Continuous
 62
     7
370
    25
100
AcDbCircle
 10
198.3323425481
 20
299.4554443601
 30
0.0
 40
0.5
100
AcDbArc
 50
0.0
 51
90.0
  0
ARC
  5
96
330
1F
100
AcDbEntity
  8
0
  6
Continuous
 62
     7
370
    25
100
AcDbCircle
 10
81.3323425481
 20
299.4554443601
 30
0.0
 40
0.5
100
AcDbArc
 50
90.0
 51
180.0
  0
LINE
  5
97
330
1F
100
AcDbEntity
  8
0
  6
Continuous
 62
     7
370
    25
100
AcDbLine
 10
184.8323425481
 20
299.9554443601
 30
0.0
 11
184.8323425481
 21
382.9554443601
 31
0.0
  0
LINE
  5
98
330
1F
100
AcDbEntity
  8
0
  6
Continuous
 62
     7
370
    25
100
AcDbLine
 10
94.8323425481
 20
382.9554443601
 30
0.0
 11
94.8323425481
 21
299.9554443601
 31
0.0
  0
LINE
  5
99
330
1F
100
AcDbEntity
  8
0
  6
Continuous
 62
     7
370
    25
100
AcDbLine
 10
95.8923425481
 20
215.9554443601
 30
0.0
 11
97.6243933556
 21
214.9554443601
 31
0.0
  0
LINE
  5
9A
330
1F
100
AcDbEntity
  8
0
  6
Continuous
 62
     7
370
    25
100
AcDbLine
 10
182.0402917405
 20
214.9554443601
 30
0.0
 11
183.7723425481
 21
215.9554443601
 31
0.0
  0
LINE
  5
9B
330
1F
100
AcDbEntity
  8
0
  6
Continuous
 62
     7
370
    25
100
AcDbLine
 10
95.8923425481
 20
217.9554443601
 30
0.0
 11
97.6243933556
 21
216.9554443601
 31
0.0
  0
LINE
  5
9C
330
1F
100
AcDbEntity
  8
0
  6
Continuous
 62
     7
370
    25
100
AcDbLine
 10
182.0402917405
 20
216.9554443601
 30
0.0
 11
183.7723425481
 21
217.9554443601
 31
0.0
  0
LINE
  5
9D
330
1F
100
AcDbEntity
  8
0
  6
Continuous
 62
     7
370
    25
100
AcDbLine
 10
183.7723425481
 20
215.9554443601
 30
0.0
 11
182.0402917405
 21
216.9554443601
 31
0.0
  0
LINE
  5
9E
330
1F
100
AcDbEntity
  8
0
  6
Continuous
 62
     7
370
    25
100
AcDbLine
 10
97.6243933556
 20
216.9554443601
 30
0.0
 11
95.8923425481
 21
215.9554443601
 31
0.0
  0
LINE
  5
9F
330
1F
100
AcDbEntity
  8
0
  6
Continuous
 62
     7
370
    25
100
AcDbLine
 10
183.7723425481
 20
217.9554443601
 30
0.0
 11
182.0402917405
 21
218.9554443601
 31
0.0
  0
LINE
  5
A0
330
1F
100
AcDbEntity
  8
0
  6
Continuous
 62
     7
370
    25
100
AcDbLine
 10
97.6243933556
 20
218.9554443601
 30
0.0
 11
95.8923425481
 21
217.9554443601
 31
0.0
  0
LINE
  5
A1
330
1F
100
AcDbEntity
  8
0
  6
Continuous
 62
     7
370
    25
100
AcDbLine
 10
95.8923425481
 20
219.9554443601
 30
0.0
 11
97.6243933556
 21
218.9554443601
 31
0.0
  0
LINE
  5
A2
330
1F
100
AcDbEntity
  8
0
  6
Continuous
 62
     7
370
    25
100
AcDbLine
 10
182.0402917405
 20
218.9554443601
 30
0.0
 11
183.7723425481
 21
219.9554443601
 31
0.0
  0
LINE
  5
A3
330
1F
100
AcDbEntity
  8
0
  6
Continuous
 62
     7
370
    25
100
AcDbLine
 10
183.7723425481
 20
219.9554443601
 30
0.0
 11
182.0402917405
 21
220.9554443601
 31
0.0
  0
LINE
  5
A4
330
1F
100
AcDbEntity
  8
0
  6
Continuous
 62
     7
370
    25
100
AcDbLine
 10
97.6243933556
 20
220.9554443601
 30
0.0
 11
95.8923425481
 21
219.9554443601
 31
0.0
  0
LINE
  5
A5
330
1F
100
AcDbEntity
  8
0
  6
Continuous
 62
     7
370
    25
100
AcDbLine
 10
95.8923425481
 20
221.9554443601
 30
0.0
 11
97.6243933556
 21
220.9554443601
 31
0.0
  0
LINE
  5
A6
330
1F
100
AcDbEntity
  8
0
  6
Continuous
 62
     7
370
    25
100
AcDbLine
 10
182.0402917405
 20
220.9554443601
 30
0.0
 11
183.7723425481
 21
221.9554443601
 31
0.0
  0
LINE
  5
A7
330
1F
100
AcDbEntity
  8
0
  6
Continuous
 62
     7
370
    25
100
AcDbLine
 10
183.7723425481
 20
221.9554443601
 30
0.0
 11
183.7723425481
 21
239.9554443601
 31
0.0
  0
LINE
  5
A8
330
1F
100
AcDbEntity
  8
0
  6
Continuous
 62
     7
370
    25
100
AcDbLine
 10
95.8923425481
 20
239.9554443601
 30
0.0
 11
95.8923425481
 21
221.9554443601
 31
0.0
  0
LINE
  5
A9
330
1F
100
AcDbEntity
  8
0
  6
Continuous
 62
     7
370
    25
100
AcDbLine
 10
198.8323425481
 20
259.9554443601
 30
0.0
 11
80.8323425481
 21
259.9554443601
 31
0.0
  0
LINE
  5
AA
330
1F
100
AcDbEntity
  8
0
  6
Continuous
 62
     7
370
    25
100
AcDbLine
 10
198.3323425463
 20
299.9554443601
 30
0.0
 11
81.3323425481
 21
299.9554443601
 31
0.0
  0
LINE
  5
AB
330
1F
100
AcDbEntity
  8
0
  6
Continuous
 62
     7
370
    25
100
AcDbLine
 10
94.3323425481
 20
259.9554443601
 30
0.0
 11
94.3323425481
 21
239.9554443601
 31
0.0
  0
LINE
  5
AC
330
1F
100
AcDbEntity
  8
0
  6
Continuous
 62
     7
370
    25
100
AcDbLine
 10
139.8323425481
 20
259.9554443601
 30
0.0
 11
139.8323425481
 21
239.9554443601
 31
0.0
  0
LINE
  5
AD
330
1F
100
AcDbEntity
  8
0
  6
Continuous
 62
     7
370
    25
100
AcDbLine
 10
94.3323425481
 20
239.9554443601
 30
0.0
 11
139.8323425481
 21
239.9554443601
 31
0.0
  0
LINE
  5
AE
330
1F
100
AcDbEntity
  8
0
  6
Continuous
 62
     7
370
    25
100
AcDbLine
 10
185.3323425481
 20
259.9554443601
 30
0.0
 11
185.3323425481
 21
239.9554443601
 31
0.0
  0
LINE
  5
AF
330
1F
100
AcDbEntity
  8
0
  6
Continuous
 62
     7
370
    25
100
AcDbLine
 10
139.8323425481
 20
239.9554443601
 30
0.0
 11
185.3323425481
 21
239.9554443601
 31
0.0
  0
LINE
  5
B0
330
1F
100
AcDbEntity
  8
0
  6
Continuous
 62
     7
370
    25
100
AcDbLine
 10
184.8323425481
 20
382.9554443601
 30
0.0
 11
94.8323425481
 21
382.9554443601
 31
0.0
  0
LINE
  5
B1
330
1F
100
AcDbEntity
  8
0
  6
Continuous
 62
     7
370
    25
100
AcDbLine
 10
183.7723425481
 20
215.9554443601
 30
0.0
 11
95.8923425481
 21
215.9554443601
 31
0.0
  0
LINE
  5
B2
330
1F
100
AcDbEntity
  8
0
  6
Continuous
 62
     7
370
    25
100
AcDbLine
 10
182.0402917405
 20
214.9554443601
 30
0.0
 11
97.6243933556
 21
214.9554443601
 31
0.0
  0
LINE
  5
B3
330
1F
100
AcDbEntity
  8
0
  6
Continuous
 62
     7
370
    25
100
AcDbLine
 10
183.7723425481
 20
217.9554443601
 30
0.0
 11
95.8923425481
 21
217.9554443601
 31
0.0
  0
LINE
  5
B4
330
1F
100
AcDbEntity
  8
0
  6
Continuous
 62
     7
370
    25
100
AcDbLine
 10
182.0402917405
 20
216.9554443601
 30
0.0
 11
97.6243933556
 21
216.9554443601
 31
0.0
  0
LINE
  5
B5
330
1F
100
AcDbEntity
  8
0
  6
Continuous
 62
     7
370
    25
100
AcDbLine
 10
182.0402917405
 20
218.9554443601
 30
0.0
 11
97.6243933556
 21
218.9554443601
 31
0.0
  0
LINE
  5
B6
330
1F
100
AcDbEntity
  8
0
  6
Continuous
 62
     7
370
    25
100
AcDbLine
 10
183.7723425481
 20
219.9554443601
 30
0.0
 11
95.8923425481
 21
219.9554443601
 31
0.0
  0
LINE
  5
B7
330
1F
100
AcDbEntity
  8
0
  6
Continuous
 62
     7
370
    25
100
AcDbLine
 10
182.0402917405
 20
220.9554443601
 30
0.0
 11
97.6243933556
 21
220.9554443601
 31
0.0
  0
LINE
  5
B8
330
1F
100
AcDbEntity
  8
0
  6
Continuous
 62
     7
370
    25
100
AcDbLine
 10
183.7723425481
 20
221.9554443601
 30
0.0
 11
95.8923425481
 21
221.9554443601
 31
0.0
  0
LINE
  5
B9
330
1F
100
AcDbEntity
  8
0
  6
Continuous
 62
     1
370
    25
100
AcDbLine
 10
198.8323425481
 20
299.4554443601
 30
0.0
 11
80.8323425481
 21
299.4554443601
 31
0.0
  0
LINE
  5
BA
330
1F
100
AcDbEntity
  8
0
  6
Continuous
 62
     7
370
    25
100
AcDbLine
 10
312.0015459735
 20
49.7440552885
 30
0.0
 11
351.5015459735
 21
49.7440552885
 31
0.0
  0
LINE
  5
BB
330
1F
100
AcDbEntity
  8
0
  6
Continuous
 62
     7
370
    25
100
AcDbLine
 10
351.5015459735
 20
167.7440552885
 30
0.0
 11
312.0015459735
 21
167.7440552885
 31
0.0
  0
ARC
  5
BC
330
1F
100
AcDbEntity
  8
0
  6
Continuous
 62
     7
370
    25
100
AcDbCircle
 10
351.5015459735
 20
50.2440552885
 30
0.0
 40
0.5
100
AcDbArc
 50
270.0
 51
0.0
  0
ARC
  5
BD
330
1F
100
AcDbEntity
  8
0
  6
Continuous
 62
     7
370
    25
100
AcDbCircle
 10
351.5015459735
 20
167.2440552885
 30
0.0
 40
0.5
100
AcDbArc
 50
0.0
 51
90.0
  0
LINE
  5
BE
330
1F
100
AcDbEntity
  8
0
  6
Continuous
 62
     7
370
    25
100
AcDbLine
 10
352.0015459735
 20
63.7440552885
 30
0.0
 11
435.0015459735
 21
63.7440552885
 31
0.0
  0
LINE
  5
BF
330
1F
100
AcDbEntity
  8
0
  6
Continuous
 62
     7
370
    25
100
AcDbLine
 10
435.0015459735
 20
153.7440552885
 30
0.0
 11
352.0015459735
 21
153.7440552885
 31
0.0
  0
LINE
  5
C0
330
1F
100
AcDbEntity
  8
0
  6
Continuous
 62
     7
370
    25
100
AcDbLine
 10
268.0015459735
 20
152.6840552885
 30
0.0
 11
267.0015459735
 21
150.9520044809
 31
0.0
  0
LINE
  5
C1
330
1F
100
AcDbEntity
  8
0
  6
Continuous
 62
     7
370
    25
100
AcDbLine
 10
267.0015459735
 20
66.536106096
 30
0.0
 11
268.0015459735
 21
64.8040552885
 31
0.0
  0
LINE
  5
C2
330
1F
100
AcDbEntity
  8
0
  6
Continuous
 62
     7
370
    25
100
AcDbLine
 10
270.0015459735
 20
152.6840552885
 30
0.0
 11
269.0015459735
 21
150.9520044809
 31
0.0
  0
LINE
  5
C3
330
1F
100
AcDbEntity
  8
0
  6
Continuous
 62
     7
370
    25
100
AcDbLine
 10
269.0015459735
 20
66.536106096
 30
0.0
 11
270.0015459735
 21
64.8040552885
 31
0.0
  0
LINE
  5
C4
330
1F
100
AcDbEntity
  8
0
  6
Continuous
 62
     7
370
    25
100
AcDbLine
 10
268.0015459735
 20
64.8040552885
 30
0.0
 11
269.0015459735
 21
66.536106096
 31
0.0
  0
LINE
  5
C5
330
1F
100
AcDbEntity
  8
0
  6
Continuous
 62
     7
370
    25
100
AcDbLine
 10
269.0015459735
 20
150.9520044809
 30
0.0
 11
268.0015459735
 21
152.6840552885
 31
0.0
  0
LINE
  5
C6
330
1F
100
AcDbEntity
  8
0
  6
Continuous
 62
     7
370
    25
100
AcDbLine
 10
270.0015459735
 20
64.8040552885
 30
0.0
 11
271.0015459735
 21
66.536106096
 31
0.0
  0
LINE
  5
C7
330
1F
100
AcDbEntity
  8
0
  6
Continuous
 62
     7
370
    25
100
AcDbLine
 10
271.0015459735
 20
150.9520044809
 30
0.0
 11
270.0015459735
 21
152.6840552885
 31
0.0
  0
LINE
  5
C8
330
1F
100
AcDbEntity
  8
0
  6
Continuous
 62
     7
370
    25
100
AcDbLine
 10
272.0015459735
 20
152.6840552885
 30
0.0
 11
271.0015459735
 21
150.9520044809
 31
0.0
  0
LINE
  5
C9
330
1F
100
AcDbEntity
  8
0
  6
Continuous
 62
     7
370
    25
100
AcDbLine
 10
271.0015459735
 20
66.536106096
 30
0.0
 11
272.0015459735
 21
64.8040552885
 31
0.0
  0
LINE
  5
CA
330
1F
100
AcDbEntity
  8
0
  6
Continuous
 62
     7
370
    25
100
AcDbLine
 10
272.0015459735
 20
64.8040552885
 30
0.0
 11
273.0015459735
 21
66.536106096
 31
0.0
  0
LINE
  5
CB
330
1F
100
AcDbEntity
  8
0
  6
Continuous
 62
     7
370
    25
100
AcDbLine
 10
273.0015459735
 20
150.9520044809
 30
0.0
 11
272.0015459735
 21
152.6840552885
 31
0.0
  0
LINE
  5
CC
330
1F
100
AcDbEntity
  8
0
  6
Continuous
 62
     7
370
    25
100
AcDbLine
 10
274.0015459735
 20
152.6840552885
 30
0.0
 11
273.0015459735
 21
150.9520044809
 31
0.0
  0
LINE
  5
CD
330
1F
100
AcDbEntity
  8
0
  6
Continuous
 62
     7
370
    25
100
AcDbLine
 10
273.0015459735
 20
66.536106096
 30
0.0
 11
274.0015459735
 21
64.8040552885
 31
0.0
  0
LINE
  5
CE
330
1F
100
AcDbEntity
  8
0
  6
Continuous
 62
     7
370
    25
100
AcDbLine
 10
274.0015459735
 20
64.8040552885
 30
0.0
 11
292.0015459735
 21
64.8040552885
 31
0.0
  0
LINE
  5
CF
330
1F
100
AcDbEntity
  8
0
  6
Continuous
 62
     7
370
    25
100
AcDbLine
 10
292.0015459735
 20
152.6840552885
 30
0.0
 11
274.0015459735
 21
152.6840552885
 31
0.0
  0
LINE
  5
D0
330
1F
100
AcDbEntity
  8
0
  6
Continuous
 62
     7
370
    25
100
AcDbLine
 10
312.0015459735
 20
108.7440552885
 30
0.0
 11
312.0015459735
 21
167.7440552885
 31
0.0
  0
LINE
  5
D1
330
1F
100
AcDbEntity
  8
0
  6
Continuous
 62
     7
370
    25
100
AcDbLine
 10
312.0015459735
 20
49.7440552885
 30
0.0
 11
312.0015459735
 21
108.7440552885
 31
0.0
  0
LINE
  5
D2
330
1F
100
AcDbEntity
  8
0
  6
Continuous
 62
     7
370
    25
100
AcDbLine
 10
352.0015459735
 20
108.7440552885
 30
0.0
 11
352.0015459735
 21
167.2440552885
 31
0.0
  0
LINE
  5
D3
330
1F
100
AcDbEntity
  8
0
  6
Continuous
 62
     7
370
    25
100
AcDbLine
 10
352.0015459735
 20
50.2440552885
 30
0.0
 11
352.0015459735
 21
108.7440552885
 31
0.0
  0
LINE
  5
D4
330
1F
100
AcDbEntity
  8
0
  6
Continuous
 62
     7
370
    25
100
AcDbLine
 10
312.0015459735
 20
82.4746180403
 30
0.0
 11
292.0015459735
 21
82.4746180403
 31
0.0
  0
LINE
  5
D5
330
1F
100
AcDbEntity
  8
0
  6
Continuous
 62
     7
370
    25
100
AcDbLine
 10
312.0015459735
 20
56.2051807922
 30
0.0
 11
292.0015459735
 21
56.2051807922
 31
0.0
  0
LINE
  5
D6
330
1F
100
AcDbEntity
  8
0
  6
Continuous
 62
     7
370
    25
100
AcDbLine
 10
292.0015459735
 20
82.4746180403
 30
0.0
 11
292.0015459735
 21
56.2051807922
 31
0.0
  0
LINE
  5
D7
330
1F
100
AcDbEntity
  8
0
  6
Continuous
 62
     7
370
    25
100
AcDbLine
 10
312.0015459735
 20
135.0134925366
 30
0.0
 11
292.0015459735
 21
135.0134925366
 31
0.0
  0
LINE
  5
D8
330
1F
100
AcDbEntity
  8
0
  6
Continuous
 62
     7
370
    25
100
AcDbLine
 10
292.0015459735
 20
135.0134925366
 30
0.0
 11
292.0015459735
 21
82.4746180403
 31
0.0
  0
LINE
  5
D9
330
1F
100
AcDbEntity
  8
0
  6
Continuous
 62
     7
370
    25
100
AcDbLine
 10
312.0015459735
 20
161.2829297847
 30
0.0
 11
292.0015459735
 21
161.2829297847
 31
0.0
  0
LINE
  5
DA
330
1F
100
AcDbEntity
  8
0
  6
Continuous
 62
     7
370
    25
100
AcDbLine
 10
292.0015459735
 20
161.2829297847
 30
0.0
 11
292.0015459735
 21
135.0134925366
 31
0.0
  0
LINE
  5
DB
330
1F
100
AcDbEntity
  8
0
  6
Continuous
 62
     7
370
    25
100
AcDbLine
 10
435.0015459735
 20
108.7440552885
 30
0.0
 11
435.0015459735
 21
153.7440552885
 31
0.0
  0
LINE
  5
DC
330
1F
100
AcDbEntity
  8
0
  6
Continuous
 62
     7
370
    25
100
AcDbLine
 10
435.0015459735
 20
63.7440552885
 30
0.0
 11
435.0015459735
 21
108.7440552885
 31
0.0
  0
LINE
  5
DD
330
1F
100
AcDbEntity
  8
0
  6
Continuous
 62
     7
370
    25
100
AcDbLine
 10
268.0015459735
 20
108.7440552885
 30
0.0
 11
268.0015459735
 21
152.6840552885
 31
0.0
  0
LINE
  5
DE
330
1F
100
AcDbEntity
  8
0
  6
Continuous
 62
     7
370
    25
100
AcDbLine
 10
268.0015459735
 20
64.8040552885
 30
0.0
 11
268.0015459735
 21
108.7440552885
 31
0.0
  0
LINE
  5
DF
330
1F
100
AcDbEntity
  8
0
  6
Continuous
 62
     7
370
    25
100
AcDbLine
 10
267.0015459735
 20
108.7440552885
 30
0.0
 11
267.0015459735
 21
150.9520044809
 31
0.0
  0
LINE
  5
E0
330
1F
100
AcDbEntity
  8
0
  6
Continuous
 62
     7
370
    25
100
AcDbLine
 10
267.0015459735
 20
66.536106096
 30
0.0
 11
267.0015459735
 21
108.7440552885
 31
0.0
  0
LINE
  5
E1
330
1F
100
AcDbEntity
  8
0
  6
Continuous
 62
     7
370
    25
100
AcDbLine
 10
270.0015459735
 20
108.7440552885
 30
0.0
 11
270.0015459735
 21
152.6840552885
 31
0.0
  0
LINE
  5
E2
330
1F
100
AcDbEntity
  8
0
  6
Continuous
 62
     7
370
    25
100
AcDbLine
 10
270.0015459735
 20
64.8040552885
 30
0.0
 11
270.0015459735
 21
108.7440552885
 31
0.0
  0
LINE
  5
E3
330
1F
100
AcDbEntity
  8
0
  6
Continuous
 62
     7
370
    25
100
AcDbLine
 10
269.0015459735
 20
108.7440552885
 30
0.0
 11
269.0015459735
 21
150.9520044809
 31
0.0
  0
LINE
  5
E4
330
1F
100
AcDbEntity
  8
0
  6
Continuous
 62
     7
370
    25
100
AcDbLine
 10
269.0015459735
 20
66.536106096
 30
0.0
 11
269.0015459735
 21
108.7440552885
 31
0.0
  0
LINE
  5
E5
330
1F
100
AcDbEntity
  8
0
  6
Continuous
 62
     7
370
    25
100
AcDbLine
 10
271.0015459735
 20
108.7440552885
 30
0.0
 11
271.0015459735
 21
150.9520044809
 31
0.0
  0
LINE
  5
E6
330
1F
100
AcDbEntity
  8
0
  6
Continuous
 62
     7
370
    25
100
AcDbLine
 10
271.0015459735
 20
66.536106096
 30
0.0
 11
271.0015459735
 21
108.7440552885
 31
0.0
  0
LINE
  5
E7
330
1F
100
AcDbEntity
  8
0
  6
Continuous
 62
     7
370
    25
100
AcDbLine
 10
272.0015459735
 20
108.7440552885
 30
0.0
 11
272.0015459735
 21
152.6840552885
 31
0.0
  0
LINE
  5
E8
330
1F
100
AcDbEntity
  8
0
  6
Continuous
 62
     7
370
    25
100
AcDbLine
 10
272.0015459735
 20
64.8040552885
 30
0.0
 11
272.0015459735
 21
108.7440552885
 31
0.0
  0
LINE
  5
E9
330
1F
100
AcDbEntity
  8
0
  6
Continuous
 62
     7
370
    25
100
AcDbLine
 10
273.0015459735
 20
108.7440552885
 30
0.0
 11
273.0015459735
 21
150.9520044809
 31
0.0
  0
LINE
  5
EA
330
1F
100
AcDbEntity
  8
0
  6
Continuous
 62
     7
370
    25
100
AcDbLine
 10
273.0015459735
 20
66.536106096
 30
0.0
 11
273.0015459735
 21
108.7440552885
 31
0.0
  0
LINE
  5
EB
330
1F
100
AcDbEntity
  8
0
  6
Continuous
 62
     7
370
    25
100
AcDbLine
 10
274.0015459735
 20
108.7440552885
 30
0.0
 11
274.0015459735
 21
152.6840552885
 31
0.0
  0
LINE
  5
EC
330
1F
100
AcDbEntity
  8
0
  6
Continuous
 62
     7
370
    25
100
AcDbLine
 10
274.0015459735
 20
64.8040552885
 30
0.0
 11
274.0015459735
 21
108.7440552885
 31
0.0
  0
LINE
  5
ED
330
1F
100
AcDbEntity
  8
0
  6
Continuous
 62
     1
370
    25
100
AcDbLine
 10
351.5015459735
 20
108.7440552885
 30
0.0
 11
351.5015459735
 21
167.7440552885
 31
0.0
  0
LINE
  5
EE
330
1F
100
AcDbEntity
  8
0
  6
Continuous
 62
     1
370
    25
100
AcDbLine
 10
351.5015459735
 20
49.7440552885
 30
0.0
 11
351.5015459735
 21
108.7440552885
 31
0.0
  0
LINE
  5
EF
330
1F
100
AcDbEntity
  8
0
  6
Continuous
 62
     7
370
    25
100
AcDbLine
 10
-29.0706749492
 20
167.7440552885
 30
0.0
 11
-68.5706749492
 21
167.7440552885
 31
0.0
  0
LINE
  5
F0
330
1F
100
AcDbEntity
  8
0
  6
Continuous
 62
     7
370
    25
100
AcDbLine
 10
-68.5706749492
 20
49.7440552885
 30
0.0
 11
-29.0706749492
 21
49.7440552885
 31
0.0
  0
ARC
  5
F1
330
1F
100
AcDbEntity
  8
0
  6
Continuous
 62
     7
370
    25
100
AcDbCircle
 10
-68.5706749492
 20
167.2440552885
 30
0.0
 40
0.5
100
AcDbArc
 50
90.0
 51
180.0
  0
ARC
  5
F2
330
1F
100
AcDbEntity
  8
0
  6
Continuous
 62
     7
370
    25
100
AcDbCircle
 10
-68.5706749492
 20
50.2440552885
 30
0.0
 40
0.5
100
AcDbArc
 50
180.0
 51
270.0
  0
LINE
  5
F3
330
1F
100
AcDbEntity
  8
0
  6
Continuous
 62
     7
370
    25
100
AcDbLine
 10
-69.0706749492
 20
153.7440552885
 30
0.0
 11
-152.0706749492
 21
153.7440552885
 31
0.0
  0
LINE
  5
F4
330
1F
100
AcDbEntity
  8
0
  6
Continuous
 62
     7
370
    25
100
AcDbLine
 10
-152.0706749492
 20
63.7440552885
 30
0.0
 11
-69.0706749492
 21
63.7440552885
 31
0.0
  0
LINE
  5
F5
330
1F
100
AcDbEntity
  8
0
  6
Continuous
 62
     7
370
    25
100
AcDbLine
 10
14.9293250508
 20
64.8040552885
 30
0.0
 11
15.9293250508
 21
66.536106096
 31
0.0
  0
LINE
  5
F6
330
1F
100
AcDbEntity
  8
0
  6
Continuous
 62
     7
370
    25
100
AcDbLine
 10
15.9293250508
 20
150.9520044809
 30
0.0
 11
14.9293250508
 21
152.6840552885
 31
0.0
  0
LINE
  5
F7
330
1F
100
AcDbEntity
  8
0
  6
Continuous
 62
     7
370
    25
100
AcDbLine
 10
12.9293250508
 20
64.8040552885
 30
0.0
 11
13.9293250508
 21
66.536106096
 31
0.0
  0
LINE
  5
F8
330
1F
100
AcDbEntity
  8
0
  6
Continuous
 62
     7
370
    25
100
AcDbLine
 10
13.9293250508
 20
150.9520044809
 30
0.0
 11
12.9293250508
 21
152.6840552885
 31
0.0
  0
LINE
  5
F9
330
1F
100
AcDbEntity
  8
0
  6
Continuous
 62
     7
370
    25
100
AcDbLine
 10
14.9293250508
 20
152.6840552885
 30
0.0
 11
13.9293250508
 21
150.9520044809
 31
0.0
  0
LINE
  5
FA
330
1F
100
AcDbEntity
  8
0
  6
Continuous
 62
     7
370
    25
100
AcDbLine
 10
13.9293250508
 20
66.536106096
 30
0.0
 11
14.9293250508
 21
64.8040552885
 31
0.0
  0
LINE
  5
FB
330
1F
100
AcDbEntity
  8
0
  6
Continuous
 62
     7
370
    25
100
AcDbLine
 10
12.9293250508
 20
152.6840552885
 30
0.0
 11
11.9293250508
 21
150.9520044809
 31
0.0
  0
LINE
  5
FC
330
1F
100
AcDbEntity
  8
0
  6
Continuous
 62
     7
370
    25
100
AcDbLine
 10
11.9293250508
 20
66.536106096
 30
0.0
 11
12.9293250508
 21
64.8040552885
 31
0.0
  0
LINE
  5
FD
330
1F
100
AcDbEntity
  8
0
  6
Continuous
 62
     7
370
    25
100
AcDbLine
 10
10.9293250508
 20
64.8040552885
 30
0.0
 11
11.9293250508
 21
66.536106096
 31
0.0
  0
LINE
  5
FE
330
1F
100
AcDbEntity
  8
0
  6
Continuous
 62
     7
370
    25
100
AcDbLine
 10
11.9293250508
 20
150.9520044809
 30
0.0
 11
10.9293250508
 21
152.6840552885
 31
0.0
  0
LINE
  5
FF
330
1F
100
AcDbEntity
  8
0
  6
Continuous
 62
     7
370
    25
100
AcDbLine
 10
10.9293250508
 20
152.6840552885
 30
0.0
 11
9.9293250508
 21
150.9520044809
 31
0.0
  0
LINE
  5
100
330
1F
100
AcDbEntity
  8
0
  6
Continuous
 62
     7
370
    25
100
AcDbLine
 10
9.9293250508
 20
66.536106096
 30
0.0
 11
10.9293250508
 21
64.8040552885
 31
0.0
  0
LINE
  5
101
330
1F
100
AcDbEntity
  8
0
  6
Continuous
 62
     7
370
    25
100
AcDbLine
 10
8.9293250508
 20
64.8040552885
 30
0.0
 11
9.9293250508
 21
66.536106096
 31
0.0
  0
LINE
  5
102
330
1F
100
AcDbEntity
  8
0
  6
Continuous
 62
     7
370
    25
100
AcDbLine
 10
9.9293250508
 20
150.9520044809
 30
0.0
 11
8.9293250508
 21
152.6840552885
 31
0.0
  0
LINE
  5
103
330
1F
100
AcDbEntity
  8
0
  6
Continuous
 62
     7
370
    25
100
AcDbLine
 10
8.9293250508
 20
152.6840552885
 30
0.0
 11
-9.0706749492
 21
152.6840552885
 31
0.0
  0
LINE
  5
104
330
1F
100
AcDbEntity
  8
0
  6
Continuous
 62
     7
370
    25
100
AcDbLine
 10
-9.0706749492
 20
64.8040552885
 30
0.0
 11
8.9293250508
 21
64.8040552885
 31
0.0
  0
LINE
  5
105
330
1F
100
AcDbEntity
  8
0
  6
Continuous
 62
     7
370
    25
100
AcDbLine
 10
-29.0706749492
 20
167.7440552885
 30
0.0
 11
-29.0706749492
 21
49.7440552885
 31
0.0
  0
LINE
  5
106
330
1F
100
AcDbEntity
  8
0
  6
Continuous
 62
     7
370
    25
100
AcDbLine
 10
-69.0706749492
 20
167.2440552885
 30
0.0
 11
-69.0706749492
 21
50.2440552885
 31
0.0
  0
LINE
  5
107
330
1F
100
AcDbEntity
  8
0
  6
Continuous
 62
     7
370
    25
100
AcDbLine
 10
-29.0706749492
 20
135.0134925366
 30
0.0
 11
-9.0706749492
 21
135.0134925366
 31
0.0
  0
LINE
  5
108
330
1F
100
AcDbEntity
  8
0
  6
Continuous
 62
     7
370
    25
100
AcDbLine
 10
-29.0706749492
 20
161.2829297847
 30
0.0
 11
-9.0706749492
 21
161.2829297847
 31
0.0
  0
LINE
  5
109
330
1F
100
AcDbEntity
  8
0
  6
Continuous
 62
     7
370
    25
100
AcDbLine
 10
-9.0706749492
 20
135.0134925366
 30
0.0
 11
-9.0706749492
 21
161.2829297847
 31
0.0
  0
LINE
  5
10A
330
1F
100
AcDbEntity
  8
0
  6
Continuous
 62
     7
370
    25
100
AcDbLine
 10
-29.0706749492
 20
82.4746180403
 30
0.0
 11
-9.0706749492
 21
82.4746180403
 31
0.0
  0
LINE
  5
10B
330
1F
100
AcDbEntity
  8
0
  6
Continuous
 62
     7
370
    25
100
AcDbLine
 10
-9.0706749492
 20
82.4746180403
 30
0.0
 11
-9.0706749492
 21
135.0134925366
 31
0.0
  0
LINE
  5
10C
330
1F
100
AcDbEntity
  8
0
  6
Continuous
 62
     7
370
    25
100
AcDbLine
 10
-29.0706749492
 20
56.2051807922
 30
0.0
 11
-9.0706749492
 21
56.2051807922
 31
0.0
  0
LINE
  5
10D
330
1F
100
AcDbEntity
  8
0
  6
Continuous
 62
     7
370
    25
100
AcDbLine
 10
-9.0706749492
 20
56.2051807922
 30
0.0
 11
-9.0706749492
 21
82.4746180403
 31
0.0
  0
LINE
  5
10E
330
1F
100
AcDbEntity
  8
0
  6
Continuous
 62
     7
370
    25
100
AcDbLine
 10
-152.0706749492
 20
153.7440552885
 30
0.0
 11
-152.0706749492
 21
63.7440552885
 31
0.0
  0
LINE
  5
10F
330
1F
100
AcDbEntity
  8
0
  6
Continuous
 62
     7
370
    25
100
AcDbLine
 10
14.9293250508
 20
152.6840552885
 30
0.0
 11
14.9293250508
 21
64.8040552885
 31
0.0
  0
LINE
  5
110
330
1F
100
AcDbEntity
  8
0
  6
Continuous
 62
     7
370
    25
100
AcDbLine
 10
15.9293250508
 20
150.9520044809
 30
0.0
 11
15.9293250508
 21
66.536106096
 31
0.0
  0
LINE
  5
111
330
1F
100
AcDbEntity
  8
0
  6
Continuous
 62
     7
370
    25
100
AcDbLine
 10
12.9293250508
 20
152.6840552885
 30
0.0
 11
12.9293250508
 21
64.8040552885
 31
0.0
  0
LINE
  5
112
330
1F
100
AcDbEntity
  8
0
  6
Continuous
 62
     7
370
    25
100
AcDbLine
 10
13.9293250508
 20
150.9520044809
 30
0.0
 11
13.9293250508
 21
66.536106096
 31
0.0
  0
LINE
  5
113
330
1F
100
AcDbEntity
  8
0
  6
Continuous
 62
     7
370
    25
100
AcDbLine
 10
11.9293250508
 20
150.9520044809
 30
0.0
 11
11.9293250508
 21
66.536106096
 31
0.0
  0
LINE
  5
114
330
1F
100
AcDbEntity
  8
0
  6
Continuous
 62
     7
370
    25
100
AcDbLine
 10
10.9293250508
 20
152.6840552885
 30
0.0
 11
10.9293250508
 21
64.8040552885
 31
0.0
  0
LINE
  5
115
330
1F
100
AcDbEntity
  8
0
  6
Continuous
 62
     7
370
    25
100
AcDbLine
 10
9.9293250508
 20
150.9520044809
 30
0.0
 11
9.9293250508
 21
66.536106096
 31
0.0
  0
LINE
  5
116
330
1F
100
AcDbEntity
  8
0
  6
Continuous
 62
     7
370
    25
100
AcDbLine
 10
8.9293250508
 20
152.6840552885
 30
0.0
 11
8.9293250508
 21
64.8040552885
 31
0.0
  0
LINE
  5
117
330
1F
100
AcDbEntity
  8
0
  6
Continuous
 62
     1
370
    25
100
AcDbLine
 10
-68.5706749492
 20
167.7440552885
 30
0.0
 11
-68.5706749492
 21
49.7440552885
 31
0.0
  0
LINE
  5
118
330
1F
100
AcDbEntity
  8
0
  6
Continuous
 62
     7
370
    25
100
AcDbLine
 10
360.8119463221
 20
-14.8953832324
 30
0.0
 11
302.1220834836
 21
18.9855534083
 31
0.0
  0
LINE
  5
119
330
1F
100
AcDbEntity
  8
0
  6
Continuous
 62
     7
370
    25
100
AcDbLine
 10
257.125740515
 20
-58.958844206
 30
0.0
 11
315.8156033535
 21
-92.8397808466
 31
0.0
  0
SPLINE
  5
11A
330
1F
100
AcDbEntity
  8
0
  6
Continuous
 62
     7
370
    25
100
AcDbSpline
210
0.0
220
0.0
230
1.0
 70
     8
 71
     3
 72
    17
 73
    13
 74
     0
 42
0.00000001
 43
0.00000001
 40
0.0
 40
0.0
 40
0.0
 40
0.0
 40
0.0707579419460912
 40
0.1794514528828282
 40
0.2882699276318233
 40
0.3972041466270694
 40
0.506239065537271
 40
0.6153567853092006
 40
0.7245389593426736
 40
0.8337684577042741
 40
0.9430303217179464
 40
1.0
 40
1.0
 40
1.0
 40
1.0
 10
360.0212670769023
 20
-0.3458789759549774
 30
0.0
 10
359.6321702339617
 20
-0.3000482533003779
 30
0.0
 10
358.6453694331269
 20
-0.1838155090904958
 30
0.0
 10
357.0041810520455
 20
-0.1491555609244022
 30
0.0
 10
355.1096515285649
 20
-0.2236713497358322
 30
0.0
 10
353.1720792496881
 20
-0.4372591047754615
 30
0.0
 10
351.1989596766023
 20
-0.7825244621134375
 30
0.0
 10
349.1945748539448
 20
-1.261049886539328
 30
0.0
 10
347.1643422586149
 20
-1.869019135148559
 30
0.0
 10
345.1128838915724
 20
-2.612962018722909
 30
0.0
 10
343.3768767327543
 20
-3.325828739844217
 30
0.0
 10
342.3233247006733
 20
-3.838121152687113
 30
0.0
 10
341.9622589276428
 20
-4.0136903229116
 30
0.0
  0
SPLINE
  5
11B
330
1F
100
AcDbEntity
  8
0
  6
Continuous
 62
     7
370
    25
100
AcDbSpline
210
0.0
220
0.0
230
1.0
 70
     8
 71
     3
 72
    17
 73
    13
 74
     0
 42
0.00000001
 43
0.00000001
 40
0.0
 40
0.0
 40
0.0
 40
0.0
 40
0.0899146750249324
 40
0.1992081128403665
 40
0.3084909821204241
 40
0.417752436695156
 40
0.5269788921515075
 40
0.6361540969366667
 40
0.7452596483746043
 40
0.8542761395820266
 40
0.9631850733196626
 40
0.9999999999999999
 40
0.9999999999999999
 40
0.9999999999999999
 40
0.9999999999999999
 10
296.9600128226742
 20
-81.9546801290978
 30
0.0
 10
297.0122873135506
 20
-82.58219127075076
 30
0.0
 10
297.128102698239
 20
-83.97245721210378
 30
0.0
 10
297.4318592049265
 20
-86.03897701952104
 30
0.0
 10
297.8463480526087
 20
-88.1640498769558
 30
0.0
 10
298.365737246024
 20
-90.20301582649776
 30
0.0
 10
298.9848776049889
 20
-92.15337851178798
 30
0.0
 10
299.7038512387355
 20
-94.00873573929664
 30
0.0
 10
300.5184515885535
 20
-95.76710302872466
 30
0.0
 10
301.434561325265
 20
-97.41401323980456
 30
0.0
 10
302.2030569889413
 20
-98.63651604976845
 30
0.0
 10
302.695875267829
 20
-99.27066645023699
 30
0.0
 10
302.8203783433854
 20
-99.43087494615932
 30
0.0
  0
LINE
  5
11C
330
1F
100
AcDbEntity
  8
0
  6
Continuous
 62
     7
370
    25
100
AcDbLine
 10
396.095648698
 20
-19.0988613955
 30
0.0
 11
368.1649308411
 21
-2.974801187
 31
0.0
  0
LINE
  5
11D
330
1F
100
AcDbEntity
  8
0
  6
Continuous
 62
     7
370
    25
100
AcDbLine
 10
309.1697256156
 20
-105.1685669479
 30
0.0
 11
337.1004434725
 21
-121.2926271564
 31
0.0
  0
LINE
  5
11E
330
1F
100
AcDbEntity
  8
0
  6
Continuous
 62
     7
370
    25
100
AcDbLine
 10
415.4363183263
 20
-47.6533113876
 30
0.0
 11
412.913540253
 21
-46.1969426055
 31
0.0
  0
LINE
  5
11F
330
1F
100
AcDbEntity
  8
0
  6
Continuous
 62
     7
370
    25
100
AcDbLine
 10
364.6785471675
 20
-119.82380847
 30
0.0
 11
371.4998892143
 21
-123.7616854136
 31
0.0
  0
LWPOLYLINE
  5
120
330
1F
100
AcDbEntity
  8
0
  6
Continuous
 62
     7
370
    25
100
AcDbPolyline
 90
       95
 70
   128
 43
0.0
 10
253.6023824516
 20
-35.0085546564
 10
253.6604916855
 20
-32.9679769707
 10
253.8345598572
 20
-30.8694215069
 10
254.1238095361
 20
-28.7222609232
 10
254.5269488628
 20
-26.53608496
 10
255.0421773192
 20
-24.3206576098
 10
255.6671937701
 20
-22.085873509
 10
256.3992067401
 20
-19.8417137458
 10
257.2349468817
 20
-17.5982012825
 10
258.1706815765
 20
-15.3653561905
 10
259.2022316063
 20
-13.153150898
 10
260.3249898181
 20
-10.9714656507
 10
261.5339417012
 20
-8.8300443847
 10
262.8236877832
 20
-6.7384512071
 10
264.1884677447
 20
-4.7060276807
 10
265.6221861474
 20
-2.7418511026
 10
267.1184396566
 20
-0.854693962
 10
268.6705456411
 20
0.9470152391
 10
270.2715720187
 20
2.6552296301
 10
271.914368217
 20
4.2623199108
 10
273.5915971094
 20
5.7611084259
 10
275.2957677844
 20
7.144901222
 10
277.0192690021
 20
8.4075179447
 10
278.7544031877
 20
9.5433194411
 10
280.4934208108
 20
10.547232946
 10
282.2285549965
 20
11.414774738
 10
283.9520562142
 20
12.1420701649
 10
285.6562268892
 20
12.7258709487
 10
287.3334557816
 20
13.1635696934
 10
288.9762519798
 20
13.4532115301
 10
290.5772783575
 20
13.5935028482
 10
292.1293843419
 20
13.5838170725
 10
293.6256378512
 20
13.424197462
 10
295.0593562538
 20
13.1153569167
 10
296.4241362154
 20
12.6586747935
 10
297.7138822973
 20
12.0561907455
 10
298.9228341805
 20
11.3105956127
 10
300.0455923923
 20
10.4252194041
 10
301.077142422
 20
9.4040164247
 10
302.0128771169
 20
8.2515476148
 10
302.8486172585
 20
6.9729601801
 10
303.5806302285
 20
5.5739646023
 10
304.2056466793
 20
4.0608091353
 10
304.7208751358
 20
2.4402518987
 10
305.1240144625
 20
0.7195306946
 10
305.4132641413
 20
-1.0936693184
 10
305.5873323131
 20
-2.991249949
 10
305.645441547
 20
-4.9647361413
 10
305.5873323131
 20
-7.005313827
 10
305.4132641413
 20
-9.1038692908
 10
305.1240144625
 20
-11.2510298745
 10
304.7208751358
 20
-13.4372058377
 10
304.2056466793
 20
-15.6526331879
 10
303.5806302285
 20
-17.8874172888
 10
302.8486172585
 20
-20.1315770519
 10
302.0128771169
 20
-22.3750895152
 10
301.077142422
 20
-24.6079346072
 10
300.0455923923
 20
-26.8201398998
 10
298.9228341805
 20
-29.001825147
 10
297.7138822973
 20
-31.1432464131
 10
296.4241362154
 20
-33.2348395907
 10
295.0593562538
 20
-35.267263117
 10
293.6256378512
 20
-37.2314396951
 10
292.1293843419
 20
-39.1185968357
 10
290.5772783575
 20
-40.9203060368
 10
288.9762519798
 20
-42.6285204278
 10
287.3334557816
 20
-44.2356107085
 10
285.6562268892
 20
-45.7343992236
 10
283.9520562142
 20
-47.1181920198
 10
282.2285549965
 20
-48.3808087424
 10
280.4934208108
 20
-49.5166102388
 10
278.7544031877
 20
-50.5205237437
 10
277.0192690021
 20
-51.3880655357
 10
275.2957677844
 20
-52.1153609626
 10
273.5915971094
 20
-52.6991617464
 10
271.914368217
 20
-53.1368604911
 10
270.2715720187
 20
-53.4265023278
 10
268.6705456411
 20
-53.5667936459
 10
267.1184396566
 20
-53.5571078702
 10
265.6221861474
 20
-53.3974882597
 10
264.1884677447
 20
-53.0886477144
 10
262.8236877832
 20
-52.6319655912
 10
261.5339417012
 20
-52.0294815432
 10
260.3249898181
 20
-51.2838864104
 10
259.2022316063
 20
-50.3985102018
 10
258.1706815765
 20
-49.3773072224
 10
257.2349468817
 20
-48.2248384126
 10
256.3992067401
 20
-46.9462509778
 10
255.6671937701
 20
-45.5472554
 10
255.0421773192
 20
-44.034099933
 10
254.5269488628
 20
-42.4135426964
 10
254.1238095361
 20
-40.6928214923
 10
253.8345598572
 20
-38.8796214793
 10
253.6604916855
 20
-36.9820408487
 10
253.6023824516
 20
-35.0085546564
  0
LWPOLYLINE
  5
121
330
1F
100
AcDbEntity
  8
0
  6
Continuous
 62
     7
370
    25
100
AcDbPolyline
 90
      105
 70
   128
 43
0.0
 10
247.8041068459
 20
-38.3558279149
 10
247.862160355
 20
-36.1037465087
 10
248.0361090514
 20
-33.7928555483
 10
248.3253182152
 20
-31.4315872244
 10
248.7287325535
 20
-29.0285575489
 10
249.2448800511
 20
-26.5925349166
 10
249.8718773418
 20
-24.1324081098
 10
250.6074365804
 20
-21.6571538644
 10
251.4488737911
 20
-19.1758041149
 10
252.3931186607
 20
-16.6974130372
 10
253.4367257422
 20
-14.2310240117
 10
254.5758870263
 20
-11.7856366245
 10
255.8064458373
 20
-9.3701738289
 10
257.1239119993
 20
-6.9934493868
 10
258.5234782213
 20
-4.6641357078
 10
260.0000376378
 20
-2.3907322051
 10
261.5482024438
 20
-0.1815342813
 10
263.1623235537
 20
1.9553969397
 10
264.8365112146
 20
4.0122640279
 10
266.5646564973
 20
5.9815616981
 10
268.3404535872
 20
7.8561041968
 10
270.1574227931
 20
9.6290515216
 10
272.0089341915
 20
11.2939343802
 10
273.8882318181
 20
12.8446777954
 10
275.7884583197
 20
14.2756232727
 10
277.7026799759
 20
15.5815494472
 10
279.6239119993
 20
16.757691136
 10
281.5451440227
 20
17.7997567256
 10
283.4593656789
 20
18.7039438316
 10
285.3595921804
 20
19.4669531734
 10
287.2388898071
 20
20.0860006126
 10
289.0904012055
 20
20.5588273123
 10
290.9073704114
 20
20.8837079791
 10
292.6831675013
 20
21.0594571586
 10
294.411312784
 20
21.0854335612
 10
296.0855004449
 20
20.9615424019
 10
297.6996215548
 20
20.6882357459
 10
299.2477863608
 20
20.2665108597
 10
300.7243457773
 20
19.6979065716
 10
302.1239119993
 20
18.9844976571
 10
303.4413781613
 20
18.1288872678
 10
304.6719369722
 20
17.1341974333
 10
305.8110982564
 20
16.0040576689
 10
306.8547053378
 20
14.7425917322
 10
307.7989502075
 20
13.3544025754
 10
308.6403874182
 20
11.8445555503
 10
309.3759466568
 20
10.2185599249
 10
310.0029439475
 20
8.4823487809
 10
310.5190914451
 20
6.6422573645
 10
310.9225057833
 20
4.7049999698
 10
311.2117149471
 20
2.6776454388
 10
311.3856636436
 20
0.5675913684
 10
311.4437171527
 20
-1.6174628829
 10
311.3856636436
 20
-3.8695442891
 10
311.2117149471
 20
-6.1804352494
 10
310.9225057833
 20
-8.5417035733
 10
310.5190914451
 20
-10.9447332488
 10
310.0029439475
 20
-13.3807558811
 10
309.3759466568
 20
-15.8408826879
 10
308.6403874182
 20
-18.3161369333
 10
307.7989502075
 20
-20.7974866829
 10
306.8547053378
 20
-23.2758777605
 10
305.8110982564
 20
-25.742266786
 10
304.6719369722
 20
-28.1876541732
 10
303.4413781613
 20
-30.6031169688
 10
302.1239119993
 20
-32.9798414109
 10
300.7243457773
 20
-35.3091550899
 10
299.2477863608
 20
-37.5825585927
 10
297.6996215548
 20
-39.7917565164
 10
296.0855004449
 20
-41.9286877375
 10
294.411312784
 20
-43.9855548256
 10
292.6831675013
 20
-45.9548524958
 10
290.9073704114
 20
-47.8293949945
 10
289.0904012055
 20
-49.6023423194
 10
287.2388898071
 20
-51.2672251779
 10
285.3595921804
 20
-52.8179685931
 10
283.4593656789
 20
-54.2489140704
 10
281.5451440227
 20
-55.5548402449
 10
279.6239119993
 20
-56.7309819337
 10
277.7026799759
 20
-57.7730475233
 10
275.7884583197
 20
-58.6772346293
 10
273.8882318181
 20
-59.4402439712
 10
272.0089341915
 20
-60.0592914104
 10
270.1574227931
 20
-60.53211811
 10
268.3404535872
 20
-60.8569987768
 10
266.5646564973
 20
-61.0327479564
 10
264.8365112146
 20
-61.058724359
 10
263.1623235537
 20
-60.9348331996
 10
261.5482024438
 20
-60.6615265436
 10
260.0000376378
 20
-60.2398016574
 10
258.5234782213
 20
-59.6711973693
 10
257.1239119993
 20
-58.9577884548
 10
255.8064458373
 20
-58.1021780655
 10
254.5758870263
 20
-57.107488231
 10
253.4367257422
 20
-55.9773484667
 10
252.3931186607
 20
-54.7158825299
 10
251.4488737911
 20
-53.3276933731
 10
250.6074365804
 20
-51.817846348
 10
249.8718773418
 20
-50.1918507226
 10
249.2448800511
 20
-48.4556395786
 10
248.7287325535
 20
-46.6155481622
 10
248.3253182152
 20
-44.6782907675
 10
248.0361090514
 20
-42.6509362365
 10
247.862160355
 20
-40.5408821662
 10
247.8041068459
 20
-38.3558279149
  0
LWPOLYLINE
  5
122
330
1F
100
AcDbEntity
  8
0
  6
Continuous
 62
     7
370
    25
100
AcDbPolyline
 90
       54
 70
   128
 43
0.0
 10
360.8119463221
 20
-14.8953832324
 10
360.8137748378
 20
-14.8964389836
 10
362.1312409998
 20
-15.7520493729
 10
363.3617998107
 20
-16.7467392073
 10
364.5009610949
 20
-17.8768789717
 10
365.5445681763
 20
-19.1383449085
 10
366.488813046
 20
-20.5265340653
 10
367.3302502567
 20
-22.0363810904
 10
368.0658094953
 20
-23.6623767158
 10
368.692806786
 20
-25.3985878598
 10
369.2089542836
 20
-27.2386792761
 10
369.6123686218
 20
-29.1759366709
 10
369.9015777856
 20
-31.2032912018
 10
370.075526482
 20
-33.3133452722
 10
370.1335799912
 20
-35.4983995235
 10
370.075526482
 20
-37.7504809297
 10
369.9015777856
 20
-40.06137189
 10
369.6123686218
 20
-42.422640214
 10
369.2089542836
 20
-44.8256698894
 10
368.692806786
 20
-47.2616925218
 10
368.0658094953
 20
-49.7218193286
 10
367.3302502567
 20
-52.1970735739
 10
366.488813046
 20
-54.6784233235
 10
365.5445681763
 20
-57.1568144012
 10
364.5009610949
 20
-59.6232034267
 10
363.3617998107
 20
-62.0685908139
 10
362.1312409998
 20
-64.4840536094
 10
360.8137748378
 20
-66.8607780516
 10
359.4142086158
 20
-69.1900917305
 10
357.9376491992
 20
-71.4634952333
 10
356.3894843933
 20
-73.672693157
 10
354.7753632834
 20
-75.8096243781
 10
353.1011756225
 20
-77.8664914662
 10
351.3730303397
 20
-79.8357891365
 10
349.5972332499
 20
-81.7103316351
 10
347.780264044
 20
-83.48327896
 10
345.9287526456
 20
-85.1481618185
 10
344.0494550189
 20
-86.6989052337
 10
342.1492285173
 20
-88.129850711
 10
340.2350068612
 20
-89.4357768856
 10
338.3137748378
 20
-90.6119185744
 10
336.3925428143
 20
-91.653984164
 10
334.4783211582
 20
-92.55817127
 10
332.5780946566
 20
-93.3211806118
 10
330.69879703
 20
-93.940228051
 10
328.8472856316
 20
-94.4130547507
 10
327.0303164256
 20
-94.7379354175
 10
325.2545193358
 20
-94.913684597
 10
323.5263740531
 20
-94.9396609996
 10
321.8521863922
 20
-94.8157698402
 10
320.2380652823
 20
-94.5424631843
 10
318.6899004763
 20
-94.1207382981
 10
317.2133410597
 20
-93.55213401
 10
315.8156033535
 20
-92.8397808466
  0
ARC
  5
123
330
1F
100
AcDbEntity
  8
0
  6
Continuous
 62
     7
370
    25
100
AcDbCircle
 10
357.958562461
 20
-20.6547069955
 30
0.0
 40
20.40056847579078
100
AcDbArc
 50
36.1718357645
 51
83.8279089352
  0
ARC
  5
124
330
1F
100
AcDbEntity
  8
0
  6
Continuous
 62
     7
370
    25
100
AcDbCircle
 10
319.3751838925
 20
-87.4898541494
 30
0.0
 40
20.39911462740411
100
AcDbArc
 50
216.175769698
 51
263.7718059325
  0
LWPOLYLINE
  5
125
330
1F
100
AcDbEntity
  8
0
  6
Continuous
 62
     7
370
    25
100
AcDbPolyline
 90
       62
 70
   128
 43
0.0
 10
396.095648698
 20
-19.0988613955
 10
396.0980460852
 20
-19.1002456026
 10
397.6015280697
 20
-20.0618406286
 10
399.020031665
 20
-21.1608491997
 10
400.3496688515
 20
-22.3942590099
 10
401.586795186
 20
-23.7586893685
 10
402.7280197913
 20
-25.2504004669
 10
403.77021465
 20
-26.8653036284
 10
404.7105231785
 20
-28.598972516
 10
405.5463680564
 20
-30.4466552636
 10
406.2754582911
 20
-32.4032875012
 10
406.8957954969
 20
-34.463506236
 10
407.4056793726
 20
-36.6216645515
 10
407.8037123619
 20
-38.8718470858
 10
408.0888034842
 20
-41.207886245
 10
408.2601713244
 20
-43.6233791081
 10
408.3173461752
 20
-46.1117049772
 10
408.2601713244
 20
-48.6660435239
 10
408.0888034842
 20
-51.2793934839
 10
407.8037123619
 20
-53.9445918465
 10
407.4056793726
 20
-56.6543334883
 10
406.8957954969
 20
-59.4011911959
 10
406.2754582911
 20
-62.1776360231
 10
405.5463680564
 20
-64.9760579277
 10
404.7105231785
 20
-67.7887866298
 10
403.77021465
 20
-70.6081126354
 10
402.7280197913
 20
-73.4263083681
 10
401.586795186
 20
-76.2356493492
 10
400.3496688515
 20
-79.0284353702
 10
399.020031665
 20
-81.797011599
 10
397.6015280697
 20
-84.5337895603
 10
396.0980460852
 20
-87.2312679362
 10
394.5137066513
 20
-89.8820531259
 10
392.8528523322
 20
-92.4788795114
 10
391.1200354141
 20
-95.0146293721
 10
389.3200054278
 20
-97.4823523939
 10
387.4576961302
 20
-99.8752847194
 10
385.5382119819
 20
-102.1868674877
 10
383.5668141553
 20
-104.4107648109
 10
381.548906115
 20
-106.540881141
 10
379.4900188065
 20
-108.5713779774
 10
377.3957954969
 20
-110.4966898692
 10
375.2719763067
 20
-112.3115396704
 10
373.1243824767
 20
-114.0109530039
 10
370.9589004122
 20
-115.5902718958
 10
368.7814655492
 20
-117.0451675429
 10
366.5980460852
 20
-118.3716521772
 10
364.4146266212
 20
-119.5660899967
 10
362.2371917582
 20
-120.6252071302
 10
360.0717096938
 20
-121.5461006113
 10
357.9241158638
 20
-122.3262463351
 10
355.8002966736
 20
-122.9635059762
 10
353.706073364
 20
-123.4561328504
 10
351.6471860555
 20
-123.8027767016
 10
349.6292780152
 20
-124.0024874031
 10
347.6578801886
 20
-124.0547175617
 10
345.7383960402
 20
-123.9593240182
 10
343.8760867427
 20
-123.7165682397
 10
342.0760567564
 20
-123.327115603
 10
340.3432398383
 20
-122.7920335705
 10
338.6823855191
 20
-122.112788765
 10
337.1004434725
 20
-121.2926271564
  0
LINE
  5
126
330
1F
100
AcDbEntity
  8
0
  6
Continuous
 62
     7
370
    25
100
AcDbLine
 10
370.9408119988
 20
-115.602904911
 30
0.0
 11
380.740181709
 21
-121.2599606309
 31
0.0
  0
LINE
  5
127
330
1F
100
AcDbEntity
  8
0
  6
Continuous
 62
     7
370
    25
100
AcDbLine
 10
402.1030873285
 20
-74.9958668332
 30
0.0
 11
412.913540253
 21
-81.2366084686
 31
0.0
  0
LINE
  5
128
330
1F
100
AcDbEntity
  8
0
  6
Continuous
 62
     7
370
    25
100
AcDbLine
 10
380.740181709
 20
-121.2599606309
 30
0.0
 11
412.913540253
 21
-81.2366084686
 31
0.0
  0
LINE
  5
129
330
1F
100
AcDbEntity
  8
0
  6
Continuous
 62
     7
370
    25
100
AcDbLine
 10
407.0182917228
 20
-34.9332186957
 30
0.0
 11
412.913540253
 21
-38.3364732319
 31
0.0
  0
LINE
  5
12A
330
1F
100
AcDbEntity
  8
0
  6
Continuous
 62
     7
370
    25
100
AcDbLine
 10
412.913540253
 20
-81.2366084686
 30
0.0
 11
412.913540253
 21
-38.3364732319
 31
0.0
  0
LWPOLYLINE
  5
12B
330
1F
100
AcDbEntity
  8
0
  6
Continuous
 62
     7
370
    25
100
AcDbPolyline
 90
       54
 70
   128
 43
0.0
 10
415.4363183263
 20
-47.6533113876
 10
415.9348903496
 20
-47.9544998168
 10
417.2014929224
 20
-48.8510413614
 10
418.3798057287
 20
-49.8846913469
 10
419.4654453675
 20
-51.0516045275
 10
420.4543731881
 20
-52.3474399095
 10
421.342910314
 20
-53.7673769002
 10
422.1277513287
 20
-55.3061332407
 10
422.8059765721
 20
-56.9579846564
 10
423.3750630018
 20
-58.7167861515
 10
423.8328935788
 20
-60.5759948689
 10
424.1777651434
 20
-62.5286944301
 10
424.4083947507
 20
-64.5676206645
 10
424.5239244433
 20
-66.6851886325
 10
424.5239244433
 20
-68.8735208422
 10
424.4083947507
 20
-71.1244765541
 10
424.1777651434
 20
-73.4296820651
 10
423.8328935788
 20
-75.7805618592
 10
423.3750630018
 20
-78.1683705093
 10
422.8059765721
 20
-80.5842252104
 10
422.1277513287
 20
-83.0191388242
 10
421.342910314
 20
-85.4640533122
 10
420.4543731881
 20
-87.9098734319
 10
419.4654453675
 20
-90.3475005718
 10
418.3798057287
 20
-92.7678665989
 10
417.2014929224
 20
-95.1619675926
 10
415.9348903496
 20
-97.5208973399
 10
414.5847098551
 20
-99.8358804673
 10
413.155974199
 20
-102.0983050854
 10
411.6539983719
 20
-104.2997548261
 10
410.0843698224
 20
-106.4320401517
 10
408.4529276718
 20
-108.4872288209
 10
406.765740992
 20
-110.4576753967
 10
405.0290862285
 20
-112.3360496885
 10
403.2494238508
 20
-114.1153640205
 10
401.43337432
 20
-115.7889992266
 10
399.5876934597
 20
-117.3507292738
 10
397.7192473237
 20
-118.7947444239
 10
395.8349866545
 20
-120.1156728455
 10
393.9419210255
 20
-121.3086005983
 10
392.0470927652
 20
-122.3690899127
 10
390.1575507591
 20
-123.2931956987
 10
388.2803242278
 20
-124.0774802221
 10
386.422396577
 20
-124.7190258929
 10
384.5906794198
 20
-125.2154461192
 10
382.7919868642
 20
-125.5648941852
 10
381.0330101647
 20
-125.7660701209
 10
379.3202928302
 20
-125.8182255388
 10
377.6602062816
 20
-125.7211664172
 10
376.0589261499
 20
-125.4752538226
 10
374.5224093024
 20
-125.0814025658
 10
373.0563716827
 20
-124.5410777994
 10
371.666267047
 20
-123.8562895671
 10
371.4998892143
 20
-123.7616854136
  0
LINE
  5
12C
330
1F
100
AcDbEntity
  8
0
  6
Continuous
 62
     7
370
    25
100
AcDbLine
 10
364.0249240415
 20
-119.7653647131
 30
0.0
 11
380.740181709
 21
-121.2599606309
 31
0.0
  0
LWPOLYLINE
  5
12D
330
1F
100
AcDbEntity
  8
0
  6
Continuous
 62
     7
370
    25
100
AcDbPolyline
 90
       54
 70
   128
 43
0.0
 10
416.1320457807
 20
-48.0812271516
 10
417.349103912
 20
-48.7709079286
 10
418.6157064847
 20
-49.6674494732
 10
419.794019291
 20
-50.7010994587
 10
420.8796589299
 20
-51.8680126393
 10
421.8685867505
 20
-53.1638480213
 10
422.7571238763
 20
-54.583785012
 10
423.541964891
 20
-56.1225413526
 10
424.2201901345
 20
-57.7743927682
 10
424.7892765642
 20
-59.5331942633
 10
425.2471071412
 20
-61.3924029807
 10
425.5919787058
 20
-63.3451025419
 10
425.8226083131
 20
-65.3840287763
 10
425.9381380057
 20
-67.5015967443
 10
425.9381380057
 20
-69.689928954
 10
425.8226083131
 20
-71.9408846659
 10
425.5919787058
 20
-74.2460901769
 10
425.2471071412
 20
-76.5969699711
 10
424.7892765642
 20
-78.9847786212
 10
424.2201901345
 20
-81.4006333222
 10
423.541964891
 20
-83.835546936
 10
422.7571238763
 20
-86.280461424
 10
421.8685867505
 20
-88.7262815437
 10
420.8796589299
 20
-91.1639086836
 10
419.794019291
 20
-93.5842747107
 10
418.6157064847
 20
-95.9783757044
 10
417.349103912
 20
-98.3373054517
 10
415.9989234175
 20
-100.6522885791
 10
414.5701877614
 20
-102.9147131972
 10
413.0682119343
 20
-105.1161629379
 10
411.4985833847
 20
-107.2484482636
 10
409.8671412341
 20
-109.3036369327
 10
408.1799545544
 20
-111.2740835085
 10
406.4432997908
 20
-113.1524578003
 10
404.6636374132
 20
-114.9317721323
 10
402.8475878824
 20
-116.6054073384
 10
401.001907022
 20
-118.1671373856
 10
399.1334608861
 20
-119.6111525357
 10
397.2492002168
 20
-120.9320809574
 10
395.3561345879
 20
-122.1250087102
 10
393.4613063276
 20
-123.1854980245
 10
391.5717643215
 20
-124.1096038105
 10
389.6945377901
 20
-124.8938883339
 10
387.8366101394
 20
-125.5354340048
 10
386.0048929821
 20
-126.0318542311
 10
384.2062004266
 20
-126.381302297
 10
382.4472237271
 20
-126.5824782327
 10
380.7345063925
 20
-126.6346336506
 10
379.0744198439
 20
-126.5375745291
 10
377.4731397123
 20
-126.2916619344
 10
375.9366228648
 20
-125.8978106776
 10
374.4705852451
 20
-125.3574859112
 10
373.0804806094
 20
-124.6726976789
 10
372.2183753224
 20
-124.1501777615
  0
LWPOLYLINE
  5
12E
330
1F
100
AcDbEntity
  8
0
  6
Continuous
 62
     7
370
    25
100
AcDbPolyline
 90
       54
 70
   128
 43
0.0
 10
417.546259343
 20
-48.8976352634
 10
418.7633174743
 20
-49.5873160404
 10
420.0299200471
 20
-50.483857585
 10
421.2082328534
 20
-51.5175075705
 10
422.2938724923
 20
-52.6844207511
 10
423.2828003128
 20
-53.9802561332
 10
424.1713374387
 20
-55.4001931239
 10
424.9561784534
 20
-56.9389494644
 10
425.6344036968
 20
-58.5908008801
 10
426.2034901265
 20
-60.3496023752
 10
426.6613207036
 20
-62.2088110926
 10
427.0061922682
 20
-64.1615106538
 10
427.2368218754
 20
-66.2004368881
 10
427.3523515681
 20
-68.3180048561
 10
427.3523515681
 20
-70.5063370658
 10
427.2368218754
 20
-72.7572927777
 10
427.0061922682
 20
-75.0624982887
 10
426.6613207036
 20
-77.4133780829
 10
426.2034901265
 20
-79.801186733
 10
425.6344036968
 20
-82.217041434
 10
424.9561784534
 20
-84.6519550478
 10
424.1713374387
 20
-87.0968695358
 10
423.2828003128
 20
-89.5426896555
 10
422.2938724923
 20
-91.9803167955
 10
421.2082328534
 20
-94.4006828226
 10
420.0299200471
 20
-96.7947838163
 10
418.7633174743
 20
-99.1537135636
 10
417.4131369798
 20
-101.4686966909
 10
415.9844013238
 20
-103.731121309
 10
414.4824254966
 20
-105.9325710497
 10
412.9127969471
 20
-108.0648563754
 10
411.2813547965
 20
-110.1200450445
 10
409.5941681168
 20
-112.0904916203
 10
407.8575133532
 20
-113.9688659121
 10
406.0778509756
 20
-115.7481802441
 10
404.2618014448
 20
-117.4218154502
 10
402.4161205844
 20
-118.9835454974
 10
400.5476744484
 20
-120.4275606475
 10
398.6634137792
 20
-121.7484890692
 10
396.7703481502
 20
-122.941416822
 10
394.8755198899
 20
-124.0019061363
 10
392.9859778839
 20
-124.9260119223
 10
391.1087513525
 20
-125.7102964457
 10
389.2508237017
 20
-126.3518421166
 10
387.4191065445
 20
-126.8482623429
 10
385.6204139889
 20
-127.1977104088
 10
383.8614372894
 20
-127.3988863445
 10
382.1487199549
 20
-127.4510417624
 10
380.4886334063
 20
-127.3539826409
 10
378.8873532746
 20
-127.1080700462
 10
377.3508364272
 20
-126.7142187894
 10
375.8847988074
 20
-126.173894023
 10
374.4946941718
 20
-125.4891057907
 10
373.6325888847
 20
-124.9665858733
  0
LWPOLYLINE
  5
12F
330
1F
100
AcDbEntity
  8
0
  6
Continuous
 62
     7
370
    25
100
AcDbPolyline
 90
       54
 70
   128
 43
0.0
 10
418.9604729054
 20
-49.7140433752
 10
420.1775310367
 20
-50.4037241522
 10
421.4441336095
 20
-51.3002656968
 10
422.6224464158
 20
-52.3339156823
 10
423.7080860546
 20
-53.500828863
 10
424.6970138752
 20
-54.796664245
 10
425.5855510011
 20
-56.2166012357
 10
426.3703920158
 20
-57.7553575762
 10
427.0486172592
 20
-59.4072089919
 10
427.6177036889
 20
-61.166010487
 10
428.0755342659
 20
-63.0252192044
 10
428.4204058305
 20
-64.9779187656
 10
428.6510354378
 20
-67.0168449999
 10
428.7665651305
 20
-69.1344129679
 10
428.7665651305
 20
-71.3227451777
 10
428.6510354378
 20
-73.5737008896
 10
428.4204058305
 20
-75.8789064005
 10
428.0755342659
 20
-78.2297861947
 10
427.6177036889
 20
-80.6175948448
 10
427.0486172592
 20
-83.0334495458
 10
426.3703920158
 20
-85.4683631596
 10
425.5855510011
 20
-87.9132776476
 10
424.6970138752
 20
-90.3590977673
 10
423.7080860546
 20
-92.7967249073
 10
422.6224464158
 20
-95.2170909344
 10
421.4441336095
 20
-97.6111919281
 10
420.1775310367
 20
-99.9701216754
 10
418.8273505422
 20
-102.2851048027
 10
417.3986148862
 20
-104.5475294209
 10
415.896639059
 20
-106.7489791616
 10
414.3270105095
 20
-108.8812644872
 10
412.6955683589
 20
-110.9364531563
 10
411.0083816792
 20
-112.9068997321
 10
409.2717269156
 20
-114.7852740239
 10
407.4920645379
 20
-116.5645883559
 10
405.6760150072
 20
-118.238223562
 10
403.8303341468
 20
-119.7999536093
 10
401.9618880108
 20
-121.2439687593
 10
400.0776273416
 20
-122.564897181
 10
398.1845617126
 20
-123.7578249338
 10
396.2897334523
 20
-124.8183142482
 10
394.4001914463
 20
-125.7424200341
 10
392.5229649149
 20
-126.5267045575
 10
390.6650372641
 20
-127.1682502284
 10
388.8333201069
 20
-127.6646704547
 10
387.0346275513
 20
-128.0141185206
 10
385.2756508518
 20
-128.2152944564
 10
383.5629335173
 20
-128.2674498743
 10
381.9028469687
 20
-128.1703907527
 10
380.301566837
 20
-127.924478158
 10
378.7650499895
 20
-127.5306269012
 10
377.2990123698
 20
-126.9903021349
 10
375.9089077341
 20
-126.3055139025
 10
375.0468024471
 20
-125.7829939851
  0
LWPOLYLINE
  5
130
330
1F
100
AcDbEntity
  8
0
  6
Continuous
 62
     1
370
    25
100
AcDbPolyline
 90
       88
 70
   128
 43
0.0
 10
342.1205238747
 20
-4.1050547321
 10
343.2164627924
 20
-3.6063680385
 10
345.377334814
 20
-2.7238070833
 10
347.5185194271
 20
-1.983793002
 10
349.6340487661
 20
-1.3883883465
 10
351.7180264713
 20
-0.9392526162
 10
353.764644123
 20
-0.6376376332
 10
355.7681974308
 20
-0.4843840523
 10
357.7231021322
 20
-0.4799190189
 10
359.6239095573
 20
-0.6242549778
 10
361.4653218148
 20
-0.9169896388
 10
363.2422065585
 20
-1.3573070978
 10
364.9496112919
 20
-1.9439801112
 10
366.5827771718
 20
-2.675373516
 10
368.1371522719
 20
-3.5494487877
 10
369.6084042701
 20
-4.5637697216
 10
370.9924325232
 20
-5.7155092234
 10
372.2853794961
 20
-7.0014571886
 10
373.4836415139
 20
-8.4180294495
 10
374.5838788052
 20
-9.9612777652
 10
375.5830248115
 20
-11.6269008258
 10
376.4782947336
 20
-13.410256241
 10
377.2671932937
 20
-15.3063734796
 10
377.94752169
 20
-17.3099677227
 10
378.5173837252
 20
-19.4154545937
 10
378.9751910916
 20
-21.6169657232
 10
379.3196677981
 20
-23.9083651046
 10
379.5498537262
 20
-26.2832661971
 10
379.6651073064
 20
-28.7350497253
 10
379.6651073064
 20
-31.2568821287
 10
379.5498537262
 20
-33.8417346082
 10
379.3196677981
 20
-36.4824027162
 10
378.9751910916
 20
-39.1715264372
 10
378.5173837252
 20
-41.9016107009
 10
377.94752169
 20
-44.665046273
 10
377.2671932937
 20
-47.4541309627
 10
376.4782947336
 20
-50.261091091
 10
375.5830248115
 20
-53.0781031563
 10
374.5838788052
 20
-55.8973156409
 10
373.4836415139
 20
-58.7108708939
 10
372.2853794961
 20
-61.5109270322
 10
370.9924325232
 20
-64.2896797971
 10
369.6084042701
 20
-67.0393843063
 10
368.1371522719
 20
-69.7523766401
 10
366.5827771718
 20
-72.4210952023
 10
364.9496112919
 20
-75.0381017956
 10
363.2422065585
 20
-77.5961023533
 10
361.4653218148
 20
-80.087967269
 10
359.6239095573
 20
-82.5067512682
 10
357.7231021322
 20
-84.8457127662
 10
355.7681974308
 20
-87.0983326577
 10
353.764644123
 20
-89.2583324871
 10
351.7180264713
 20
-91.3196919473
 10
349.6340487661
 20
-93.27666566
 10
347.5185194271
 20
-95.1237991884
 10
345.377334814
 20
-96.8559442399
 10
343.2164627924
 20
-98.4682730157
 10
341.0419261001
 20
-99.9562916664
 10
338.859785561
 20
-101.315852817
 10
336.676123192
 20
-102.5431671267
 10
334.4970252518
 20
-103.6348138505
 10
332.3285652774
 20
-104.5877503732
 10
330.1767871554
 20
-105.3993206897
 10
328.0476882776
 20
-106.067262808
 10
325.9472028243
 20
-106.5897150536
 10
323.8811852252
 20
-106.9652212584
 10
321.855393842
 20
-107.1927348193
 10
319.8754749185
 20
-107.2716216152
 10
317.9469468439
 20
-107.2016617744
 10
316.0751847719
 20
-106.9830502875
 10
314.2654056391
 20
-106.616396464
 10
312.5226536244
 20
-106.1027222338
 10
310.8517860904
 20
-105.4434592992
 10
309.2574600445
 20
-104.6404451442
 10
307.7441191594
 20
-103.6959179132
 10
306.3159813876
 20
-102.6125101731
 10
304.9770272051
 20
-101.3932415755
 10
303.7309885174
 20
-100.0415104408
 10
302.5813382579
 20
-98.5610842859
 10
301.531280708
 20
-96.9560893243
 10
300.5837425665
 20
-95.2309989646
 10
299.741364792
 20
-93.3906213431
 10
299.0064952425
 20
-91.4400859223
 10
298.3811821313
 20
-89.3848291944
 10
297.8671683182
 20
-87.2305795283
 10
297.4658864518
 20
-84.9833412044
 10
297.1784549767
 20
-82.6493776788
 10
297.1241809061
 20
-82.0494523464
  0
LWPOLYLINE
  5
131
330
1F
100
AcDbEntity
  8
0
  6
Continuous
 62
     1
370
    25
100
AcDbPolyline
 90
       53
 70
   128
 43
0.0
 10
374.4269322154
 20
-8.6141093455
 10
374.7973019344
 20
-9.1263402584
 10
375.8394967931
 20
-10.74124342
 10
376.7798053216
 20
-12.4749123075
 10
377.6156501996
 20
-14.3225950551
 10
378.3447404342
 20
-16.2792272927
 10
378.96507764
 20
-18.3394460275
 10
379.4749615157
 20
-20.497604343
 10
379.8729945051
 20
-22.7477868773
 10
380.1580856273
 20
-25.0838260365
 10
380.3294534675
 20
-27.4993188996
 10
380.3866283184
 20
-29.9876447687
 10
380.3294534675
 20
-32.5419833154
 10
380.1580856273
 20
-35.1553332754
 10
379.8729945051
 20
-37.820531638
 10
379.4749615157
 20
-40.5302732798
 10
378.96507764
 20
-43.2771309874
 10
378.3447404342
 20
-46.0535758146
 10
377.6156501996
 20
-48.8519977192
 10
376.7798053216
 20
-51.6647264213
 10
375.8394967931
 20
-54.4840524269
 10
374.7973019344
 20
-57.3022481596
 10
373.6560773291
 20
-60.1115891407
 10
372.4189509946
 20
-62.9043751617
 10
371.0893138081
 20
-65.6729513905
 10
369.6708102128
 20
-68.4097293518
 10
368.1673282284
 20
-71.1072077277
 10
366.5829887945
 20
-73.7579929174
 10
364.9221344753
 20
-76.3548193029
 10
363.1893175572
 20
-78.8905691636
 10
361.3892875709
 20
-81.3582921854
 10
359.5269782734
 20
-83.7512245109
 10
357.607494125
 20
-86.0628072792
 10
355.6360962984
 20
-88.2867046024
 10
353.6181882581
 20
-90.4168209325
 10
351.5593009496
 20
-92.4473177689
 10
349.46507764
 20
-94.3726296607
 10
347.3412584498
 20
-96.1874794619
 10
345.1936646198
 20
-97.8868927954
 10
343.0281825554
 20
-99.4662116873
 10
340.8507476924
 20
-100.9211073344
 10
338.6673282284
 20
-102.2475919687
 10
336.4839087644
 20
-103.4420297882
 10
334.3064739014
 20
-104.5011469217
 10
332.1409918369
 20
-105.4220404028
 10
329.9933980069
 20
-106.2021861266
 10
327.8695788167
 20
-106.8394457677
 10
325.7753555071
 20
-107.3320726419
 10
323.7164681986
 20
-107.6787164931
 10
321.6985601583
 20
-107.8784271946
 10
319.7271623317
 20
-107.9306573532
 10
317.8076781834
 20
-107.8352638097
 10
317.1621136532
 20
-107.7685670696
  0
LINE
  5
132
330
1F
100
AcDbEntity
  8
0
  6
Continuous
 62
     7
370
    25
100
AcDbLine
 10
80.8323425481
 20
-36.0076985666
 30
0.0
 11
80.8323425481
 21
-75.5076985666
 31
0.0
  0
LINE
  5
133
330
1F
100
AcDbEntity
  8
0
  6
Continuous
 62
     7
370
    25
100
AcDbLine
 10
198.8323425481
 20
-75.5076985666
 30
0.0
 11
198.8323425481
 21
-36.0076985666
 31
0.0
  0
ARC
  5
134
330
1F
100
AcDbEntity
  8
0
  6
Continuous
 62
     7
370
    25
100
AcDbCircle
 10
81.3323425481
 20
-75.5076985666
 30
0.0
 40
0.5
100
AcDbArc
 50
180.0
 51
270.0
  0
ARC
  5
135
330
1F
100
AcDbEntity
  8
0
  6
Continuous
 62
     7
370
    25
100
AcDbCircle
 10
198.3323425481
 20
-75.5076985666
 30
0.0
 40
0.5
100
AcDbArc
 50
270.0
 51
0.0
  0
LINE
  5
136
330
1F
100
AcDbEntity
  8
0
  6
Continuous
 62
     7
370
    25
100
AcDbLine
 10
94.8323425481
 20
-76.0076985666
 30
0.0
 11
94.8323425481
 21
-159.0076985666
 31
0.0
  0
LINE
  5
137
330
1F
100
AcDbEntity
  8
0
  6
Continuous
 62
     7
370
    25
100
AcDbLine
 10
184.8323425481
 20
-159.0076985666
 30
0.0
 11
184.8323425481
 21
-76.0076985666
 31
0.0
  0
LINE
  5
138
330
1F
100
AcDbEntity
  8
0
  6
Continuous
 62
     7
370
    25
100
AcDbLine
 10
183.7723425481
 20
7.9923014334
 30
0.0
 11
182.0402917405
 21
8.9923014334
 31
0.0
  0
LINE
  5
139
330
1F
100
AcDbEntity
  8
0
  6
Continuous
 62
     7
370
    25
100
AcDbLine
 10
97.6243933556
 20
8.9923014334
 30
0.0
 11
95.8923425481
 21
7.9923014334
 31
0.0
  0
LINE
  5
13A
330
1F
100
AcDbEntity
  8
0
  6
Continuous
 62
     7
370
    25
100
AcDbLine
 10
183.7723425481
 20
5.9923014334
 30
0.0
 11
182.0402917405
 21
6.9923014334
 31
0.0
  0
LINE
  5
13B
330
1F
100
AcDbEntity
  8
0
  6
Continuous
 62
     7
370
    25
100
AcDbLine
 10
97.6243933556
 20
6.9923014334
 30
0.0
 11
95.8923425481
 21
5.9923014334
 31
0.0
  0
LINE
  5
13C
330
1F
100
AcDbEntity
  8
0
  6
Continuous
 62
     7
370
    25
100
AcDbLine
 10
95.8923425481
 20
7.9923014334
 30
0.0
 11
97.6243933556
 21
6.9923014334
 31
0.0
  0
LINE
  5
13D
330
1F
100
AcDbEntity
  8
0
  6
Continuous
 62
     7
370
    25
100
AcDbLine
 10
182.0402917405
 20
6.9923014334
 30
0.0
 11
183.7723425481
 21
7.9923014334
 31
0.0
  0
LINE
  5
13E
330
1F
100
AcDbEntity
  8
0
  6
Continuous
 62
     7
370
    25
100
AcDbLine
 10
95.8923425481
 20
5.9923014334
 30
0.0
 11
97.6243933556
 21
4.9923014334
 31
0.0
  0
LINE
  5
13F
330
1F
100
AcDbEntity
  8
0
  6
Continuous
 62
     7
370
    25
100
AcDbLine
 10
182.0402917405
 20
4.9923014334
 30
0.0
 11
183.7723425481
 21
5.9923014334
 31
0.0
  0
LINE
  5
140
330
1F
100
AcDbEntity
  8
0
  6
Continuous
 62
     7
370
    25
100
AcDbLine
 10
183.7723425481
 20
3.9923014334
 30
0.0
 11
182.0402917405
 21
4.9923014334
 31
0.0
  0
LINE
  5
141
330
1F
100
AcDbEntity
  8
0
  6
Continuous
 62
     7
370
    25
100
AcDbLine
 10
97.6243933556
 20
4.9923014334
 30
0.0
 11
95.8923425481
 21
3.9923014334
 31
0.0
  0
LINE
  5
142
330
1F
100
AcDbEntity
  8
0
  6
Continuous
 62
     7
370
    25
100
AcDbLine
 10
95.8923425481
 20
3.9923014334
 30
0.0
 11
97.6243933556
 21
2.9923014334
 31
0.0
  0
LINE
  5
143
330
1F
100
AcDbEntity
  8
0
  6
Continuous
 62
     7
370
    25
100
AcDbLine
 10
182.0402917405
 20
2.9923014334
 30
0.0
 11
183.7723425481
 21
3.9923014334
 31
0.0
  0
LINE
  5
144
330
1F
100
AcDbEntity
  8
0
  6
Continuous
 62
     7
370
    25
100
AcDbLine
 10
183.7723425481
 20
1.9923014334
 30
0.0
 11
182.0402917405
 21
2.9923014334
 31
0.0
  0
LINE
  5
145
330
1F
100
AcDbEntity
  8
0
  6
Continuous
 62
     7
370
    25
100
AcDbLine
 10
97.6243933556
 20
2.9923014334
 30
0.0
 11
95.8923425481
 21
1.9923014334
 31
0.0
  0
LINE
  5
146
330
1F
100
AcDbEntity
  8
0
  6
Continuous
 62
     7
370
    25
100
AcDbLine
 10
95.8923425481
 20
1.9923014334
 30
0.0
 11
95.8923425481
 21
-16.0076985666
 31
0.0
  0
LINE
  5
147
330
1F
100
AcDbEntity
  8
0
  6
Continuous
 62
     7
370
    25
100
AcDbLine
 10
183.7723425481
 20
-16.0076985666
 30
0.0
 11
183.7723425481
 21
1.9923014334
 31
0.0
  0
LINE
  5
148
330
1F
100
AcDbEntity
  8
0
  6
Continuous
 62
     7
370
    25
100
AcDbLine
 10
80.8323425481
 20
-36.0076985666
 30
0.0
 11
198.8323425481
 21
-36.0076985666
 31
0.0
  0
LINE
  5
149
330
1F
100
AcDbEntity
  8
0
  6
Continuous
 62
     7
370
    25
100
AcDbLine
 10
81.3323425481
 20
-76.0076985666
 30
0.0
 11
198.3323425463
 21
-76.0076985666
 31
0.0
  0
LINE
  5
14A
330
1F
100
AcDbEntity
  8
0
  6
Continuous
 62
     7
370
    25
100
AcDbLine
 10
185.3323425481
 20
-36.0076985666
 30
0.0
 11
185.3323425481
 21
-16.0076985666
 31
0.0
  0
LINE
  5
14B
330
1F
100
AcDbEntity
  8
0
  6
Continuous
 62
     7
370
    25
100
AcDbLine
 10
139.8323425481
 20
-36.0076985666
 30
0.0
 11
139.8323425481
 21
-16.0076985666
 31
0.0
  0
LINE
  5
14C
330
1F
100
AcDbEntity
  8
0
  6
Continuous
 62
     7
370
    25
100
AcDbLine
 10
185.3323425481
 20
-16.0076985666
 30
0.0
 11
139.8323425481
 21
-16.0076985666
 31
0.0
  0
LINE
  5
14D
330
1F
100
AcDbEntity
  8
0
  6
Continuous
 62
     7
370
    25
100
AcDbLine
 10
94.3323425481
 20
-36.0076985666
 30
0.0
 11
94.3323425481
 21
-16.0076985666
 31
0.0
  0
LINE
  5
14E
330
1F
100
AcDbEntity
  8
0
  6
Continuous
 62
     7
370
    25
100
AcDbLine
 10
139.8323425481
 20
-16.0076985666
 30
0.0
 11
94.3323425481
 21
-16.0076985666
 31
0.0
  0
LINE
  5
14F
330
1F
100
AcDbEntity
  8
0
  6
Continuous
 62
     7
370
    25
100
AcDbLine
 10
94.8323425481
 20
-159.0076985666
 30
0.0
 11
184.8323425481
 21
-159.0076985666
 31
0.0
  0
LINE
  5
150
330
1F
100
AcDbEntity
  8
0
  6
Continuous
 62
     7
370
    25
100
AcDbLine
 10
95.8923425481
 20
7.9923014334
 30
0.0
 11
183.7723425481
 21
7.9923014334
 31
0.0
  0
LINE
  5
151
330
1F
100
AcDbEntity
  8
0
  6
Continuous
 62
     7
370
    25
100
AcDbLine
 10
97.6243933556
 20
8.9923014334
 30
0.0
 11
182.0402917405
 21
8.9923014334
 31
0.0
  0
LINE
  5
152
330
1F
100
AcDbEntity
  8
0
  6
Continuous
 62
     7
370
    25
100
AcDbLine
 10
95.8923425481
 20
5.9923014334
 30
0.0
 11
183.7723425481
 21
5.9923014334
 31
0.0
  0
LINE
  5
153
330
1F
100
AcDbEntity
  8
0
  6
Continuous
 62
     7
370
    25
100
AcDbLine
 10
97.6243933556
 20
6.9923014334
 30
0.0
 11
182.0402917405
 21
6.9923014334
 31
0.0
  0
LINE
  5
154
330
1F
100
AcDbEntity
  8
0
  6
Continuous
 62
     7
370
    25
100
AcDbLine
 10
97.6243933556
 20
4.9923014334
 30
0.0
 11
182.0402917405
 21
4.9923014334
 31
0.0
  0
LINE
  5
155
330
1F
100
AcDbEntity
  8
0
  6
Continuous
 62
     7
370
    25
100
AcDbLine
 10
95.8923425481
 20
3.9923014334
 30
0.0
 11
183.7723425481
 21
3.9923014334
 31
0.0
  0
LINE
  5
156
330
1F
100
AcDbEntity
  8
0
  6
Continuous
 62
     7
370
    25
100
AcDbLine
 10
97.6243933556
 20
2.9923014334
 30
0.0
 11
182.0402917405
 21
2.9923014334
 31
0.0
  0
LINE
  5
157
330
1F
100
AcDbEntity
  8
0
  6
Continuous
 62
     7
370
    25
100
AcDbLine
 10
95.8923425481
 20
1.9923014334
 30
0.0
 11
183.7723425481
 21
1.9923014334
 31
0.0
  0
LINE
  5
158
330
1F
100
AcDbEntity
  8
0
  6
Continuous
 62
     1
370
    25
100
AcDbLine
 10
80.8323425481
 20
-75.5076985666
 30
0.0
 11
198.8323425481
 21
-75.5076985666
 31
0.0
  0
ENDSEC
  0
SECTION
  2
OBJECTS
  0
DICTIONARY
  5
C
330
0
100
AcDbDictionary
281
     1
  3
ACAD_GROUP
350
D
  3
ACAD_LAYOUT
350
1A
  3
ACAD_MLINESTYLE
350
17
  3
ACAD_PLOTSETTINGS
350
19
  3
ACAD_PLOTSTYLENAME
350
E
  3
ACAD_SCALELIST
350
47
  3
DWGPROPS
350
159
  0
DICTIONARY
  5
D
102
{ACAD_REACTORS
330
C
102
}
330
C
100
AcDbDictionary
281
     1
  0
DICTIONARY
  5
1A
102
{ACAD_REACTORS
330
C
102
}
330
C
100
AcDbDictionary
281
     1
  3
Layout1
350
1E
  3
Layout2
350
26
  3
Model
350
22
  0
DICTIONARY
  5
17
102
{ACAD_REACTORS
330
C
102
}
330
C
100
AcDbDictionary
281
     1
  3
Standard
350
18
  0
DICTIONARY
  5
19
102
{ACAD_REACTORS
330
C
102
}
330
C
100
AcDbDictionary
281
     1
  0
ACDBDICTIONARYWDFLT
  5
E
102
{ACAD_REACTORS
330
C
102
}
330
C
100
AcDbDictionary
281
     1
  3
Normal
350
F
100
AcDbDictionaryWithDefault
340
F
  0
DICTIONARY
  5
47
102
{ACAD_REACTORS
330
C
102
}
330
C
100
AcDbDictionary
281
     1
  3
A0
350
48
  3
A1
350
49
  3
A2
350
4A
  3
A3
350
4B
  3
A4
350
4C
  3
A5
350
4D
  3
A6
350
4E
  3
A7
350
4F
  3
A8
350
50
  3
A9
350
51
  3
B0
350
52
  3
B1
350
53
  3
B2
350
54
  3
B3
350
55
  3
B4
350
56
  3
B5
350
57
  3
B6
350
58
  3
B7
350
59
  3
B8
350
5A
  3
B9
350
5B
  3
C0
350
5C
  3
C1
350
5D
  3
C2
350
5E
  3
C3
350
5F
  3
C4
350
60
  3
C5
350
61
  3
C6
350
62
  3
C7
350
63
  3
C8
350
64
  3
C9
350
65
  3
D0
350
66
  3
D1
350
67
  3
D2
350
68
  0
XRECORD
  5
159
102
{ACAD_REACTORS
330
C
102
}
330
C
100
AcDbXrecord
280
     1
  1
DWGPROPS COOKIE
  2

  3

  4

  6

  7

  8
b.kav
  9

300
=
301
=
302
=
303
=
304
=
305
=
306
=
307
=
308
=
309
=
 40
0.0
 41
2459948.454427592
 42
2459948.454427778
  1

 90
        0
  0
LAYOUT
  5
1E
102
{ACAD_REACTORS
330
1A
102
}
330
1A
100
AcDbPlotSettings
  1

  2
none_device
  4

  6

 40
0.0
 41
0.0
 42
0.0
 43
0.0
 44
0.0
 45
0.0
 46
0.0
 47
0.0
 48
0.0
 49
0.0
140
0.0
141
0.0
142
1.0
143
1.0
 70
   688
 72
     1
 73
     0
 74
     5
  7

 75
    16
147
1.0
148
0.0
149
0.0
100
AcDbLayout
  1
Layout1
 70
     1
 71
     1
 10
0.0
 20
0.0
 11
420.0
 21
297.0
 12
0.0
 22
0.0
 32
0.0
 14
1.0000000000E+20
 24
1.0000000000E+20
 34
1.0000000000E+20
 15
-1.0000000000E+20
 25
-1.0000000000E+20
 35
-1.0000000000E+20
146
0.0
 13
0.0
 23
0.0
 33
0.0
 16
1.0
 26
0.0
 36
0.0
 17
0.0
 27
1.0
 37
0.0
 76
     0
330
1B
  0
LAYOUT
  5
26
102
{ACAD_REACTORS
330
1A
102
}
330
1A
100
AcDbPlotSettings
  1

  2
none_device
  4

  6

 40
0.0
 41
0.0
 42
0.0
 43
0.0
 44
0.0
 45
0.0
 46
0.0
 47
0.0
 48
0.0
 49
0.0
140
0.0
141
0.0
142
1.0
143
1.0
 70
   688
 72
     1
 73
     0
 74
     5
  7

 75
    16
147
1.0
148
0.0
149
0.0
100
AcDbLayout
  1
Layout2
 70
     1
 71
     2
 10
0.0
 20
0.0
 11
0.0
 21
0.0
 12
0.0
 22
0.0
 32
0.0
 14
0.0
 24
0.0
 34
0.0
 15
0.0
 25
0.0
 35
0.0
146
0.0
 13
0.0
 23
0.0
 33
0.0
 16
1.0
 26
0.0
 36
0.0
 17
0.0
 27
1.0
 37
0.0
 76
     0
330
23
  0
LAYOUT
  5
22
102
{ACAD_REACTORS
330
1A
102
}
330
1A
100
AcDbPlotSettings
  1

  2
none_device
  4
Letter_(8.50_x_11.00_Inches)
  6

 40
6.35
 41
6.35
 42
6.35000508
 43
6.35000508
 44
215.9
 45
279.4
 46
0.0
 47
0.0
 48
0.0
 49
0.0
140
0.0
141
0.0
142
1.0
143
1.0
 70
  1712
 72
     1
 73
     0
 74
     0
  7

 75
     0
147
1.0
148
0.0
149
0.0
100
AcDbLayout
  1
Model
 70
     1
 71
     0
 10
0.0
 20
0.0
 11
279.4
 21
215.9
 12
0.0
 22
0.0
 32
0.0
 14
0.0
 24
0.0
 34
0.0
 15
279.4
 25
215.9
 35
0.0
146
0.0
 13
0.0
 23
0.0
 33
0.0
 16
1.0
 26
0.0
 36
0.0
 17
0.0
 27
1.0
 37
0.0
 76
     0
330
1F
331
29
  0
MLINESTYLE
  5
18
102
{ACAD_REACTORS
330
17
102
}
330
17
100
AcDbMlineStyle
  2
Standard
 70
     0
  3

 62
   256
 51
90.0
 52
90.0
 71
     2
 49
0.5
 62
   256
  6
BYLAYER
 49
-0.5
 62
   256
  6
BYLAYER
  0
ACDBPLACEHOLDER
  5
F
102
{ACAD_REACTORS
330
E
102
}
330
E
  0
SCALE
  5
48
102
{ACAD_REACTORS
330
47
102
}
330
47
100
AcDbScale
 70
     0
300
1:1
140
1.0
141
1.0
290
     1
  0
SCALE
  5
49
102
{ACAD_REACTORS
330
47
102
}
330
47
100
AcDbScale
 70
     0
300
1:2
140
1.0
141
2.0
290
     0
  0
SCALE
  5
4A
102
{ACAD_REACTORS
330
47
102
}
330
47
100
AcDbScale
 70
     0
300
1:4
140
1.0
141
4.0
290
     0
  0
SCALE
  5
4B
102
{ACAD_REACTORS
330
47
102
}
330
47
100
AcDbScale
 70
     0
300
1:5
140
1.0
141
5.0
290
     0
  0
SCALE
  5
4C
102
{ACAD_REACTORS
330
47
102
}
330
47
100
AcDbScale
 70
     0
300
1:8
140
1.0
141
8.0
290
     0
  0
SCALE
  5
4D
102
{ACAD_REACTORS
330
47
102
}
330
47
100
AcDbScale
 70
     0
300
1:10
140
1.0
141
10.0
290
     0
  0
SCALE
  5
4E
102
{ACAD_REACTORS
330
47
102
}
330
47
100
AcDbScale
 70
     0
300
1:16
140
1.0
141
16.0
290
     0
  0
SCALE
  5
4F
102
{ACAD_REACTORS
330
47
102
}
330
47
100
AcDbScale
 70
     0
300
1:20
140
1.0
141
20.0
290
     0
  0
SCALE
  5
50
102
{ACAD_REACTORS
330
47
102
}
330
47
100
AcDbScale
 70
     0
300
1:30
140
1.0
141
30.0
290
     0
  0
SCALE
  5
51
102
{ACAD_REACTORS
330
47
102
}
330
47
100
AcDbScale
 70
     0
300
1:40
140
1.0
141
40.0
290
     0
  0
SCALE
  5
52
102
{ACAD_REACTORS
330
47
102
}
330
47
100
AcDbScale
 70
     0
300
1:50
140
1.0
141
50.0
290
     0
  0
SCALE
  5
53
102
{ACAD_REACTORS
330
47
102
}
330
47
100
AcDbScale
 70
     0
300
1:100
140
1.0
141
100.0
290
     0
  0
SCALE
  5
54
102
{ACAD_REACTORS
330
47
102
}
330
47
100
AcDbScale
 70
     0
300
2:1
140
2.0
141
1.0
290
     0
  0
SCALE
  5
55
102
{ACAD_REACTORS
330
47
102
}
330
47
100
AcDbScale
 70
     0
300
4:1
140
4.0
141
1.0
290
     0
  0
SCALE
  5
56
102
{ACAD_REACTORS
330
47
102
}
330
47
100
AcDbScale
 70
     0
300
8:1
140
8.0
141
1.0
290
     0
  0
SCALE
  5
57
102
{ACAD_REACTORS
330
47
102
}
330
47
100
AcDbScale
 70
     0
300
10:1
140
10.0
141
1.0
290
     0
  0
SCALE
  5
58
102
{ACAD_REACTORS
330
47
102
}
330
47
100
AcDbScale
 70
     0
300
100:1
140
100.0
141
1.0
290
     0
  0
SCALE
  5
59
102
{ACAD_REACTORS
330
47
102
}
330
47
100
AcDbScale
 70
     0
300
1/128" = 1'-0"
140
0.0078125
141
12.0
290
     0
  0
SCALE
  5
5A
102
{ACAD_REACTORS
330
47
102
}
330
47
100
AcDbScale
 70
     0
300
1/64" = 1'-0"
140
0.015625
141
12.0
290
     0
  0
SCALE
  5
5B
102
{ACAD_REACTORS
330
47
102
}
330
47
100
AcDbScale
 70
     0
300
1/32" = 1'-0"
140
0.03125
141
12.0
290
     0
  0
SCALE
  5
5C
102
{ACAD_REACTORS
330
47
102
}
330
47
100
AcDbScale
 70
     0
300
1/16" = 1'-0"
140
0.0625
141
12.0
290
     0
  0
SCALE
  5
5D
102
{ACAD_REACTORS
330
47
102
}
330
47
100
AcDbScale
 70
     0
300
3/32" = 1'-0"
140
0.09375
141
12.0
290
     0
  0
SCALE
  5
5E
102
{ACAD_REACTORS
330
47
102
}
330
47
100
AcDbScale
 70
     0
300
1/8" = 1'-0"
140
0.125
141
12.0
290
     0
  0
SCALE
  5
5F
102
{ACAD_REACTORS
330
47
102
}
330
47
100
AcDbScale
 70
     0
300
3/16" = 1'-0"
140
0.1875
141
12.0
290
     0
  0
SCALE
  5
60
102
{ACAD_REACTORS
330
47
102
}
330
47
100
AcDbScale
 70
     0
300
1/4" = 1'-0"
140
0.25
141
12.0
290
     0
  0
SCALE
  5
61
102
{ACAD_REACTORS
330
47
102
}
330
47
100
AcDbScale
 70
     0
300
3/8" = 1'-0"
140
0.375
141
12.0
290
     0
  0
SCALE
  5
62
102
{ACAD_REACTORS
330
47
102
}
330
47
100
AcDbScale
 70
     0
300
1/2" = 1'-0"
140
0.5
141
12.0
290
     0
  0
SCALE
  5
63
102
{ACAD_REACTORS
330
47
102
}
330
47
100
AcDbScale
 70
     0
300
3/4" = 1'-0"
140
0.75
141
12.0
290
     0
  0
SCALE
  5
64
102
{ACAD_REACTORS
330
47
102
}
330
47
100
AcDbScale
 70
     0
300
1" = 1'-0"
140
1.0
141
12.0
290
     0
  0
SCALE
  5
65
102
{ACAD_REACTORS
330
47
102
}
330
47
100
AcDbScale
 70
     0
300
1-1/2" = 1'-0"
140
1.5
141
12.0
290
     0
  0
SCALE
  5
66
102
{ACAD_REACTORS
330
47
102
}
330
47
100
AcDbScale
 70
     0
300
3" = 1'-0"
140
3.0
141
12.0
290
     0
  0
SCALE
  5
67
102
{ACAD_REACTORS
330
47
102
}
330
47
100
AcDbScale
 70
     0
300
6" = 1'-0"
140
6.0
141
12.0
290
     0
  0
SCALE
  5
68
102
{ACAD_REACTORS
330
47
102
}
330
47
100
AcDbScale
 70
     0
300
1'-0" = 1'-0"
140
12.0
141
12.0
290
     0
  0
ENDSEC
  0
EOF
